  0
SECTION
  2
HEADER
  9
$ACADVER
  1
AC1012
  9
$DWGCODEPAGE
  3
ansi_1252
  9
$INSBASE
 10
0.0
 20
0.0
 30
0.0
  9
$EXTMIN
 10
1.000000000000000E+20
 20
1.000000000000000E+20
 30
1.000000000000000E+20
  9
$EXTMAX
 10
-1.000000000000000E+20
 20
-1.000000000000000E+20
 30
-1.000000000000000E+20
  9
$LIMMIN
 10
0.0
 20
0.0
  9
$LIMMAX
 10
12.0
 20
9.0
  9
$ORTHOMODE
 70
     0
  9
$REGENMODE
 70
     1
  9
$FILLMODE
 70
     1
  9
$QTEXTMODE
 70
     0
  9
$MIRRTEXT
 70
     1
  9
$DRAGMODE
 70
     2
  9
$LTSCALE
 40
1.0
  9
$OSMODE
 70
    37
  9
$ATTMODE
 70
     1
  9
$TEXTSIZE
 40
0.2
  9
$TRACEWID
 40
0.05
  9
$TEXTSTYLE
  7
STANDARD
  9
$CLAYER
  8
0
  9
$CELTYPE
  6
BYLAYER
  9
$CECOLOR
 62
   256
  9
$CELTSCALE
 40
1.0
  9
$DELOBJ
 70
     1
  9
$DISPSILH
 70
     0
  9
$DIMSCALE
 40
1.0
  9
$DIMASZ
 40
0.18
  9
$DIMEXO
 40
0.0625
  9
$DIMDLI
 40
0.38
  9
$DIMRND
 40
0.0
  9
$DIMDLE
 40
0.0
  9
$DIMEXE
 40
0.18
  9
$DIMTP
 40
0.0
  9
$DIMTM
 40
0.0
  9
$DIMTXT
 40
0.18
  9
$DIMCEN
 40
0.09
  9
$DIMTSZ
 40
0.0
  9
$DIMTOL
 70
     0
  9
$DIMLIM
 70
     0
  9
$DIMTIH
 70
     1
  9
$DIMTOH
 70
     1
  9
$DIMSE1
 70
     0
  9
$DIMSE2
 70
     0
  9
$DIMTAD
 70
     0
  9
$DIMZIN
 70
     0
  9
$DIMBLK
  1

  9
$DIMASO
 70
     1
  9
$DIMSHO
 70
     1
  9
$DIMPOST
  1

  9
$DIMAPOST
  1

  9
$DIMALT
 70
     0
  9
$DIMALTD
 70
     2
  9
$DIMALTF
 40
25.4
  9
$DIMLFAC
 40
1.0
  9
$DIMTOFL
 70
     0
  9
$DIMTVP
 40
0.0
  9
$DIMTIX
 70
     0
  9
$DIMSOXD
 70
     0
  9
$DIMSAH
 70
     0
  9
$DIMBLK1
  1

  9
$DIMBLK2
  1

  9
$DIMSTYLE
  2
STANDARD
  9
$DIMCLRD
 70
     0
  9
$DIMCLRE
 70
     0
  9
$DIMCLRT
 70
     0
  9
$DIMTFAC
 40
1.0
  9
$DIMGAP
 40
0.09
  9
$DIMJUST
 70
     0
  9
$DIMSD1
 70
     0
  9
$DIMSD2
 70
     0
  9
$DIMTOLJ
 70
     1
  9
$DIMTZIN
 70
     0
  9
$DIMALTZ
 70
     0
  9
$DIMALTTZ
 70
     0
  9
$DIMFIT
 70
     3
  9
$DIMUPT
 70
     0
  9
$DIMUNIT
 70
     2
  9
$DIMDEC
 70
     4
  9
$DIMTDEC
 70
     4
  9
$DIMALTU
 70
     2
  9
$DIMALTTD
 70
     2
  9
$DIMTXSTY
  7
STANDARD
  9
$DIMAUNIT
 70
     0
  9
$LUNITS
 70
     2
  9
$LUPREC
 70
     4
  9
$SKETCHINC
 40
0.1
  9
$FILLETRAD
 40
0.5
  9
$AUNITS
 70
     0
  9
$AUPREC
 70
     0
  9
$MENU
  1
.
  9
$ELEVATION
 40
0.0
  9
$PELEVATION
 40
0.0
  9
$THICKNESS
 40
0.0
  9
$LIMCHECK
 70
     0
  9
$CHAMFERA
 40
0.5
  9
$CHAMFERB
 40
0.5
  9
$CHAMFERC
 40
1.0
  9
$CHAMFERD
 40
0.0
  9
$SKPOLY
 70
     0
  9
$TDCREATE
 40
2456036.692386285
  9
$TDUPDATE
 40
2456036.692386296
  9
$TDINDWG
 40
0.0000000116
  9
$TDUSRTIMER
 40
0.0000000116
  9
$USRTIMER
 70
     1
  9
$ANGBASE
 50
0.0
  9
$ANGDIR
 70
     0
  9
$PDMODE
 70
     0
  9
$PDSIZE
 40
0.0
  9
$PLINEWID
 40
0.0
  9
$COORDS
 70
     1
  9
$SPLFRAME
 70
     0
  9
$SPLINETYPE
 70
     6
  9
$SPLINESEGS
 70
     8
  9
$ATTDIA
 70
     0
  9
$ATTREQ
 70
     1
  9
$HANDLING
 70
     1
  9
$HANDSEED
  5
39E
  9
$SURFTAB1
 70
     6
  9
$SURFTAB2
 70
     6
  9
$SURFTYPE
 70
     6
  9
$SURFU
 70
     6
  9
$SURFV
 70
     6
  9
$UCSNAME
  2

  9
$UCSORG
 10
0.0
 20
0.0
 30
0.0
  9
$UCSXDIR
 10
1.0
 20
0.0
 30
0.0
  9
$UCSYDIR
 10
0.0
 20
1.0
 30
0.0
  9
$PUCSNAME
  2

  9
$PUCSORG
 10
0.0
 20
0.0
 30
0.0
  9
$PUCSXDIR
 10
1.0
 20
0.0
 30
0.0
  9
$PUCSYDIR
 10
0.0
 20
1.0
 30
0.0
  9
$USERI1
 70
     0
  9
$USERI2
 70
     0
  9
$USERI3
 70
     0
  9
$USERI4
 70
     0
  9
$USERI5
 70
     0
  9
$USERR1
 40
0.0
  9
$USERR2
 40
0.0
  9
$USERR3
 40
0.0
  9
$USERR4
 40
0.0
  9
$USERR5
 40
0.0
  9
$WORLDVIEW
 70
     1
  9
$SHADEDGE
 70
     3
  9
$SHADEDIF
 70
    70
  9
$TILEMODE
 70
     1
  9
$MAXACTVP
 70
    64
  9
$PINSBASE
 10
0.0
 20
0.0
 30
0.0
  9
$PLIMCHECK
 70
     0
  9
$PEXTMIN
 10
1.000000000000000E+20
 20
1.000000000000000E+20
 30
1.000000000000000E+20
  9
$PEXTMAX
 10
-1.000000000000000E+20
 20
-1.000000000000000E+20
 30
-1.000000000000000E+20
  9
$PLIMMIN
 10
0.0
 20
0.0
  9
$PLIMMAX
 10
12.0
 20
9.0
  9
$UNITMODE
 70
     0
  9
$VISRETAIN
 70
     1
  9
$PLINEGEN
 70
     0
  9
$PSLTSCALE
 70
     1
  9
$TREEDEPTH
 70
  3020
  9
$PICKSTYLE
 70
     1
  9
$CMLSTYLE
  2
STANDARD
  9
$CMLJUST
 70
     0
  9
$CMLSCALE
 40
1.0
  9
$SAVEIMAGES
 70
     1
  0
ENDSEC
  0
SECTION
  2
CLASSES
  0
CLASS
  1
ACDBDICTIONARYWDFLT
  2
AcDbDictionaryWithDefault
  3
ObjectDBX Classes
 90
    32768
280
     0
281
     0
  0
CLASS
  1
VISUALSTYLE
  2
AcDbVisualStyle
  3
ObjectDBX Classes
 90
     4095
280
     0
281
     0
  0
CLASS
  1
XRECORD
  2
AcDbXrecord
  3
AutoCAD 2000
 90
    32768
280
     0
281
     0
  0
CLASS
  1
LWPOLYLINE
  2
AcDbPolyline
  3
AutoCAD 2000
 90
    32768
280
     0
281
     1
  0
CLASS
  1
HATCH
  2
AcDbHatch
  3
AutoCAD 2000
 90
    32768
280
     0
281
     1
  0
CLASS
  1
ACDBPLACEHOLDER
  2
AcDbPlaceHolder
  3
ObjectDBX Classes
 90
        0
280
     0
281
     0
  0
CLASS
  1
LAYOUT
  2
AcDbLayout
  3
ObjectDBX Classes
 90
        0
280
     0
281
     0
  0
ENDSEC
  0
SECTION
  2
TABLES
  0
TABLE
  2
VPORT
  5
8
330
0
100
AcDbSymbolTable
 70
     1
  0
VPORT
  5
29
330
8
100
AcDbSymbolTableRecord
100
AcDbViewportTableRecord
  2
*ACTIVE
 70
     0
 10
0.0
 20
0.0
 11
1.0
 21
1.0
 12
0.0
 22
0.0
 13
0.0
 23
0.0
 14
0.5
 24
0.5
 15
0.5
 25
0.5
 16
0.0
 26
0.0
 36
1.0
 17
105.0008259828644
 27
148.5000657452101
 37
0.0
 40
297.0001314904201
 41
0.7070759562020681
 42
50.0
 43
0.0
 44
0.0
 50
0.0
 51
0.0
 71
     0
 72
   100
 73
     1
 74
     3
 75
     0
 76
     0
 77
     0
 78
     0
  0
ENDTAB
  0
TABLE
  2
LTYPE
  5
5
330
0
100
AcDbSymbolTable
 70
     5
  0
LTYPE
  5
14
330
5
100
AcDbSymbolTableRecord
100
AcDbLinetypeTableRecord
  2
BYBLOCK
 70
     0
  3

 72
    65
 73
     0
 40
0.0
  0
LTYPE
  5
15
330
5
100
AcDbSymbolTableRecord
100
AcDbLinetypeTableRecord
  2
BYLAYER
 70
     0
  3

 72
    65
 73
     0
 40
0.0
  0
LTYPE
  5
16
330
5
100
AcDbSymbolTableRecord
100
AcDbLinetypeTableRecord
  2
CONTINUOUS
 70
     0
  3
Solid line
 72
    65
 73
     0
 40
0.0
  0
LTYPE
  5
44
330
5
100
AcDbSymbolTableRecord
100
AcDbLinetypeTableRecord
  2
AI-LINETYPE-1
 70
     0
  3
Adobe Illustrator Linetype No. 1
 72
    65
 73
     4
 40
0.1792402532486628
 49
0.0878562377753095
 74
     0
 49
-0.0439281188876547
 74
     0
 49
0.0035277776980439
 74
     0
 49
-0.0439281188876547
 74
     0
  0
LTYPE
  5
4D
330
5
100
AcDbSymbolTableRecord
100
AcDbLinetypeTableRecord
  2
AI-LINETYPE-2
 70
     0
  3
Adobe Illustrator Linetype No. 2
 72
    65
 73
     4
 40
0.1792402532486628
 49
0.0878562377753095
 74
     0
 49
-0.0439281188876547
 74
     0
 49
0.0035277776980439
 74
     0
 49
-0.0439281188876547
 74
     0
  0
LTYPE
  5
65
330
5
100
AcDbSymbolTableRecord
100
AcDbLinetypeTableRecord
  2
AI-LINETYPE-3
 70
     0
  3
Adobe Illustrator Linetype No. 3
 72
    65
 73
     4
 40
0.1792402532486628
 49
0.0878562377753095
 74
     0
 49
-0.0439281188876547
 74
     0
 49
0.0035277776980439
 74
     0
 49
-0.0439281188876547
 74
     0
  0
LTYPE
  5
C6
330
5
100
AcDbSymbolTableRecord
100
AcDbLinetypeTableRecord
  2
AI-LINETYPE-4
 70
     0
  3
Adobe Illustrator Linetype No. 4
 72
    65
 73
     2
 40
0.0658921783314821
 49
0.0439281188876547
 74
     0
 49
-0.0219640594438274
 74
     0
  0
ENDTAB
  0
TABLE
  2
LAYER
  5
2
330
0
100
AcDbSymbolTable
 70
     2
  0
LAYER
  5
10
330
2
100
AcDbSymbolTableRecord
100
AcDbLayerTableRecord
  2
0
 70
     0
 62
     7
  6
CONTINUOUS
  0
LAYER
  5
3B
330
2
100
AcDbSymbolTableRecord
100
AcDbLayerTableRecord
  2
EBENE_1
 70
     0
 62
     7
  6
CONTINUOUS
  0
ENDTAB
  0
TABLE
  2
STYLE
  5
3
330
0
100
AcDbSymbolTable
 70
     1
  0
STYLE
  5
11
330
3
100
AcDbSymbolTableRecord
100
AcDbTextStyleTableRecord
  2
STANDARD
 70
     0
 40
0.0
 41
1.0
 50
0.0
 71
     0
 42
0.2
  3
txt
  4

  0
ENDTAB
  0
TABLE
  2
VIEW
  5
6
330
0
100
AcDbSymbolTable
 70
     0
  0
ENDTAB
  0
TABLE
  2
UCS
  5
7
330
0
100
AcDbSymbolTable
 70
     0
  0
ENDTAB
  0
TABLE
  2
APPID
  5
9
330
0
100
AcDbSymbolTable
 70
     1
  0
APPID
  5
12
330
9
100
AcDbSymbolTableRecord
100
AcDbRegAppTableRecord
  2
ACAD
 70
     0
  0
ENDTAB
  0
TABLE
  2
DIMSTYLE
  5
A
330
0
100
AcDbSymbolTable
 70
     1
  0
DIMSTYLE
105
27
330
A
100
AcDbSymbolTableRecord
100
AcDbDimStyleTableRecord
  2
STANDARD
 70
     0
  3

  4

  5

  6

  7

 40
1.0
 41
0.18
 42
0.0625
 43
0.38
 44
0.18
 45
0.0
 46
0.0
 47
0.0
 48
0.0
140
0.18
141
0.09
142
0.0
143
25.4
144
1.0
145
0.0
146
1.0
147
0.09
 71
     0
 72
     0
 73
     1
 74
     1
 75
     0
 76
     0
 77
     0
 78
     0
170
     0
171
     2
172
     0
173
     0
174
     0
175
     0
176
     0
177
     0
178
     0
270
     2
271
     4
272
     4
273
     2
274
     2
340
11
275
     0
280
     0
281
     0
282
     0
283
     1
284
     0
285
     0
286
     0
287
     3
288
     0
  0
ENDTAB
  0
TABLE
  2
BLOCK_RECORD
  5
1
330
0
100
AcDbSymbolTable
 70
    97
  0
BLOCK_RECORD
  5
1F
330
1
100
AcDbSymbolTableRecord
100
AcDbBlockTableRecord
  2
*MODEL_SPACE
  0
BLOCK_RECORD
  5
1B
330
1
100
AcDbSymbolTableRecord
100
AcDbBlockTableRecord
  2
*PAPER_SPACE
  0
BLOCK_RECORD
  5
3C
330
1
100
AcDbSymbolTableRecord
100
AcDbBlockTableRecord
  2
BLOCK_2
  0
BLOCK_RECORD
  5
45
330
1
100
AcDbSymbolTableRecord
100
AcDbBlockTableRecord
  2
BLOCK_3
  0
BLOCK_RECORD
  5
4E
330
1
100
AcDbSymbolTableRecord
100
AcDbBlockTableRecord
  2
BLOCK_4
  0
BLOCK_RECORD
  5
53
330
1
100
AcDbSymbolTableRecord
100
AcDbBlockTableRecord
  2
BLOCK_5
  0
BLOCK_RECORD
  5
58
330
1
100
AcDbSymbolTableRecord
100
AcDbBlockTableRecord
  2
BLOCK_6
  0
BLOCK_RECORD
  5
5D
330
1
100
AcDbSymbolTableRecord
100
AcDbBlockTableRecord
  2
BLOCK_7
  0
BLOCK_RECORD
  5
66
330
1
100
AcDbSymbolTableRecord
100
AcDbBlockTableRecord
  2
BLOCK_8
  0
BLOCK_RECORD
  5
6E
330
1
100
AcDbSymbolTableRecord
100
AcDbBlockTableRecord
  2
BLOCK_9
  0
BLOCK_RECORD
  5
76
330
1
100
AcDbSymbolTableRecord
100
AcDbBlockTableRecord
  2
BLOCK_10
  0
BLOCK_RECORD
  5
7E
330
1
100
AcDbSymbolTableRecord
100
AcDbBlockTableRecord
  2
BLOCK_11
  0
BLOCK_RECORD
  5
86
330
1
100
AcDbSymbolTableRecord
100
AcDbBlockTableRecord
  2
BLOCK_12
  0
BLOCK_RECORD
  5
8E
330
1
100
AcDbSymbolTableRecord
100
AcDbBlockTableRecord
  2
BLOCK_13
  0
BLOCK_RECORD
  5
93
330
1
100
AcDbSymbolTableRecord
100
AcDbBlockTableRecord
  2
BLOCK_14
  0
BLOCK_RECORD
  5
98
330
1
100
AcDbSymbolTableRecord
100
AcDbBlockTableRecord
  2
BLOCK_15
  0
BLOCK_RECORD
  5
9D
330
1
100
AcDbSymbolTableRecord
100
AcDbBlockTableRecord
  2
BLOCK_16
  0
BLOCK_RECORD
  5
A2
330
1
100
AcDbSymbolTableRecord
100
AcDbBlockTableRecord
  2
BLOCK_17
  0
BLOCK_RECORD
  5
A7
330
1
100
AcDbSymbolTableRecord
100
AcDbBlockTableRecord
  2
BLOCK_18
  0
BLOCK_RECORD
  5
AC
330
1
100
AcDbSymbolTableRecord
100
AcDbBlockTableRecord
  2
BLOCK_19
  0
BLOCK_RECORD
  5
B1
330
1
100
AcDbSymbolTableRecord
100
AcDbBlockTableRecord
  2
BLOCK_20
  0
BLOCK_RECORD
  5
B9
330
1
100
AcDbSymbolTableRecord
100
AcDbBlockTableRecord
  2
BLOCK_21
  0
BLOCK_RECORD
  5
C1
330
1
100
AcDbSymbolTableRecord
100
AcDbBlockTableRecord
  2
BLOCK_22
  0
BLOCK_RECORD
  5
C7
330
1
100
AcDbSymbolTableRecord
100
AcDbBlockTableRecord
  2
BLOCK_23
  0
BLOCK_RECORD
  5
CF
330
1
100
AcDbSymbolTableRecord
100
AcDbBlockTableRecord
  2
BLOCK_24
  0
BLOCK_RECORD
  5
D7
330
1
100
AcDbSymbolTableRecord
100
AcDbBlockTableRecord
  2
BLOCK_25
  0
BLOCK_RECORD
  5
DC
330
1
100
AcDbSymbolTableRecord
100
AcDbBlockTableRecord
  2
BLOCK_26
  0
BLOCK_RECORD
  5
E1
330
1
100
AcDbSymbolTableRecord
100
AcDbBlockTableRecord
  2
BLOCK_27
  0
BLOCK_RECORD
  5
E6
330
1
100
AcDbSymbolTableRecord
100
AcDbBlockTableRecord
  2
BLOCK_28
  0
BLOCK_RECORD
  5
EB
330
1
100
AcDbSymbolTableRecord
100
AcDbBlockTableRecord
  2
BLOCK_29
  0
BLOCK_RECORD
  5
F0
330
1
100
AcDbSymbolTableRecord
100
AcDbBlockTableRecord
  2
BLOCK_30
  0
BLOCK_RECORD
  5
F5
330
1
100
AcDbSymbolTableRecord
100
AcDbBlockTableRecord
  2
BLOCK_31
  0
BLOCK_RECORD
  5
FD
330
1
100
AcDbSymbolTableRecord
100
AcDbBlockTableRecord
  2
BLOCK_32
  0
BLOCK_RECORD
  5
107
330
1
100
AcDbSymbolTableRecord
100
AcDbBlockTableRecord
  2
BLOCK_33
  0
BLOCK_RECORD
  5
111
330
1
100
AcDbSymbolTableRecord
100
AcDbBlockTableRecord
  2
BLOCK_34
  0
BLOCK_RECORD
  5
119
330
1
100
AcDbSymbolTableRecord
100
AcDbBlockTableRecord
  2
BLOCK_35
  0
BLOCK_RECORD
  5
121
330
1
100
AcDbSymbolTableRecord
100
AcDbBlockTableRecord
  2
BLOCK_36
  0
BLOCK_RECORD
  5
126
330
1
100
AcDbSymbolTableRecord
100
AcDbBlockTableRecord
  2
BLOCK_37
  0
BLOCK_RECORD
  5
12E
330
1
100
AcDbSymbolTableRecord
100
AcDbBlockTableRecord
  2
BLOCK_38
  0
BLOCK_RECORD
  5
138
330
1
100
AcDbSymbolTableRecord
100
AcDbBlockTableRecord
  2
BLOCK_39
  0
BLOCK_RECORD
  5
142
330
1
100
AcDbSymbolTableRecord
100
AcDbBlockTableRecord
  2
BLOCK_40
  0
BLOCK_RECORD
  5
14A
330
1
100
AcDbSymbolTableRecord
100
AcDbBlockTableRecord
  2
BLOCK_41
  0
BLOCK_RECORD
  5
152
330
1
100
AcDbSymbolTableRecord
100
AcDbBlockTableRecord
  2
BLOCK_42
  0
BLOCK_RECORD
  5
157
330
1
100
AcDbSymbolTableRecord
100
AcDbBlockTableRecord
  2
BLOCK_43
  0
BLOCK_RECORD
  5
15F
330
1
100
AcDbSymbolTableRecord
100
AcDbBlockTableRecord
  2
BLOCK_44
  0
BLOCK_RECORD
  5
169
330
1
100
AcDbSymbolTableRecord
100
AcDbBlockTableRecord
  2
BLOCK_45
  0
BLOCK_RECORD
  5
173
330
1
100
AcDbSymbolTableRecord
100
AcDbBlockTableRecord
  2
BLOCK_46
  0
BLOCK_RECORD
  5
17B
330
1
100
AcDbSymbolTableRecord
100
AcDbBlockTableRecord
  2
BLOCK_47
  0
BLOCK_RECORD
  5
183
330
1
100
AcDbSymbolTableRecord
100
AcDbBlockTableRecord
  2
BLOCK_48
  0
BLOCK_RECORD
  5
188
330
1
100
AcDbSymbolTableRecord
100
AcDbBlockTableRecord
  2
BLOCK_49
  0
BLOCK_RECORD
  5
190
330
1
100
AcDbSymbolTableRecord
100
AcDbBlockTableRecord
  2
BLOCK_50
  0
BLOCK_RECORD
  5
19A
330
1
100
AcDbSymbolTableRecord
100
AcDbBlockTableRecord
  2
BLOCK_51
  0
BLOCK_RECORD
  5
1A4
330
1
100
AcDbSymbolTableRecord
100
AcDbBlockTableRecord
  2
BLOCK_52
  0
BLOCK_RECORD
  5
1AC
330
1
100
AcDbSymbolTableRecord
100
AcDbBlockTableRecord
  2
BLOCK_53
  0
BLOCK_RECORD
  5
1B4
330
1
100
AcDbSymbolTableRecord
100
AcDbBlockTableRecord
  2
BLOCK_54
  0
BLOCK_RECORD
  5
1B9
330
1
100
AcDbSymbolTableRecord
100
AcDbBlockTableRecord
  2
BLOCK_55
  0
BLOCK_RECORD
  5
1C1
330
1
100
AcDbSymbolTableRecord
100
AcDbBlockTableRecord
  2
BLOCK_56
  0
BLOCK_RECORD
  5
1CB
330
1
100
AcDbSymbolTableRecord
100
AcDbBlockTableRecord
  2
BLOCK_57
  0
BLOCK_RECORD
  5
1D5
330
1
100
AcDbSymbolTableRecord
100
AcDbBlockTableRecord
  2
BLOCK_58
  0
BLOCK_RECORD
  5
1DD
330
1
100
AcDbSymbolTableRecord
100
AcDbBlockTableRecord
  2
BLOCK_59
  0
BLOCK_RECORD
  5
1E5
330
1
100
AcDbSymbolTableRecord
100
AcDbBlockTableRecord
  2
BLOCK_60
  0
BLOCK_RECORD
  5
1EA
330
1
100
AcDbSymbolTableRecord
100
AcDbBlockTableRecord
  2
BLOCK_61
  0
BLOCK_RECORD
  5
1F2
330
1
100
AcDbSymbolTableRecord
100
AcDbBlockTableRecord
  2
BLOCK_62
  0
BLOCK_RECORD
  5
1FC
330
1
100
AcDbSymbolTableRecord
100
AcDbBlockTableRecord
  2
BLOCK_63
  0
BLOCK_RECORD
  5
206
330
1
100
AcDbSymbolTableRecord
100
AcDbBlockTableRecord
  2
BLOCK_64
  0
BLOCK_RECORD
  5
20E
330
1
100
AcDbSymbolTableRecord
100
AcDbBlockTableRecord
  2
BLOCK_65
  0
BLOCK_RECORD
  5
216
330
1
100
AcDbSymbolTableRecord
100
AcDbBlockTableRecord
  2
BLOCK_66
  0
BLOCK_RECORD
  5
21B
330
1
100
AcDbSymbolTableRecord
100
AcDbBlockTableRecord
  2
BLOCK_67
  0
BLOCK_RECORD
  5
223
330
1
100
AcDbSymbolTableRecord
100
AcDbBlockTableRecord
  2
BLOCK_68
  0
BLOCK_RECORD
  5
22D
330
1
100
AcDbSymbolTableRecord
100
AcDbBlockTableRecord
  2
BLOCK_69
  0
BLOCK_RECORD
  5
237
330
1
100
AcDbSymbolTableRecord
100
AcDbBlockTableRecord
  2
BLOCK_70
  0
BLOCK_RECORD
  5
23F
330
1
100
AcDbSymbolTableRecord
100
AcDbBlockTableRecord
  2
BLOCK_71
  0
BLOCK_RECORD
  5
247
330
1
100
AcDbSymbolTableRecord
100
AcDbBlockTableRecord
  2
BLOCK_72
  0
BLOCK_RECORD
  5
24C
330
1
100
AcDbSymbolTableRecord
100
AcDbBlockTableRecord
  2
BLOCK_73
  0
BLOCK_RECORD
  5
254
330
1
100
AcDbSymbolTableRecord
100
AcDbBlockTableRecord
  2
BLOCK_74
  0
BLOCK_RECORD
  5
25E
330
1
100
AcDbSymbolTableRecord
100
AcDbBlockTableRecord
  2
BLOCK_75
  0
BLOCK_RECORD
  5
268
330
1
100
AcDbSymbolTableRecord
100
AcDbBlockTableRecord
  2
BLOCK_76
  0
BLOCK_RECORD
  5
270
330
1
100
AcDbSymbolTableRecord
100
AcDbBlockTableRecord
  2
BLOCK_77
  0
BLOCK_RECORD
  5
278
330
1
100
AcDbSymbolTableRecord
100
AcDbBlockTableRecord
  2
BLOCK_78
  0
BLOCK_RECORD
  5
27D
330
1
100
AcDbSymbolTableRecord
100
AcDbBlockTableRecord
  2
BLOCK_79
  0
BLOCK_RECORD
  5
285
330
1
100
AcDbSymbolTableRecord
100
AcDbBlockTableRecord
  2
BLOCK_80
  0
BLOCK_RECORD
  5
28F
330
1
100
AcDbSymbolTableRecord
100
AcDbBlockTableRecord
  2
BLOCK_81
  0
BLOCK_RECORD
  5
299
330
1
100
AcDbSymbolTableRecord
100
AcDbBlockTableRecord
  2
BLOCK_82
  0
BLOCK_RECORD
  5
2A1
330
1
100
AcDbSymbolTableRecord
100
AcDbBlockTableRecord
  2
BLOCK_83
  0
BLOCK_RECORD
  5
2A9
330
1
100
AcDbSymbolTableRecord
100
AcDbBlockTableRecord
  2
BLOCK_84
  0
BLOCK_RECORD
  5
2AF
330
1
100
AcDbSymbolTableRecord
100
AcDbBlockTableRecord
  2
BLOCK_85
  0
BLOCK_RECORD
  5
2B5
330
1
100
AcDbSymbolTableRecord
100
AcDbBlockTableRecord
  2
BLOCK_86
  0
BLOCK_RECORD
  5
2BD
330
1
100
AcDbSymbolTableRecord
100
AcDbBlockTableRecord
  2
BLOCK_87
  0
BLOCK_RECORD
  5
2C2
330
1
100
AcDbSymbolTableRecord
100
AcDbBlockTableRecord
  2
BLOCK_88
  0
BLOCK_RECORD
  5
2CA
330
1
100
AcDbSymbolTableRecord
100
AcDbBlockTableRecord
  2
BLOCK_89
  0
BLOCK_RECORD
  5
2D2
330
1
100
AcDbSymbolTableRecord
100
AcDbBlockTableRecord
  2
BLOCK_90
  0
BLOCK_RECORD
  5
2DA
330
1
100
AcDbSymbolTableRecord
100
AcDbBlockTableRecord
  2
BLOCK_91
  0
BLOCK_RECORD
  5
2DF
330
1
100
AcDbSymbolTableRecord
100
AcDbBlockTableRecord
  2
BLOCK_92
  0
BLOCK_RECORD
  5
2E7
330
1
100
AcDbSymbolTableRecord
100
AcDbBlockTableRecord
  2
BLOCK_93
  0
BLOCK_RECORD
  5
2EC
330
1
100
AcDbSymbolTableRecord
100
AcDbBlockTableRecord
  2
BLOCK_94
  0
BLOCK_RECORD
  5
2F3
330
1
100
AcDbSymbolTableRecord
100
AcDbBlockTableRecord
  2
*U94
  0
BLOCK_RECORD
  5
338
330
1
100
AcDbSymbolTableRecord
100
AcDbBlockTableRecord
  2
*U95
  0
BLOCK_RECORD
  5
357
330
1
100
AcDbSymbolTableRecord
100
AcDbBlockTableRecord
  2
*U96
  0
ENDTAB
  0
ENDSEC
  0
SECTION
  2
BLOCKS
  0
BLOCK
  5
20
330
1F
100
AcDbEntity
  8
0
100
AcDbBlockBegin
  2
*MODEL_SPACE
 70
     0
 71
     0
 10
0.0
 20
0.0
 30
0.0
  3
*MODEL_SPACE
  1

  0
ENDBLK
  5
21
330
1F
100
AcDbEntity
  8
0
100
AcDbBlockEnd
  0
BLOCK
  5
1C
330
1B
100
AcDbEntity
 67
     1
  8
0
100
AcDbBlockBegin
  2
*PAPER_SPACE
 70
     0
 71
     0
 10
0.0
 20
0.0
 30
0.0
  3
*PAPER_SPACE
  1

  0
ENDBLK
  5
1D
330
1B
100
AcDbEntity
 67
     1
  8
0
100
AcDbBlockEnd
  0
BLOCK
  5
3E
330
3C
100
AcDbEntity
  8
0
100
AcDbBlockBegin
  2
BLOCK_2
 70
     0
 71
     0
 10
0.0
 20
0.0
 30
0.0
  3
BLOCK_2
  1

  0
POLYLINE
  5
40
330
3C
100
AcDbEntity
  8
EBENE_1
  6
AI-LINETYPE-1
 62
     7
100
AcDb2dPolyline
 66
     1
 10
0.0
 20
0.0
 30
0.0
  0
VERTEX
  5
41
330
40
100
AcDbEntity
  8
EBENE_1
  6
AI-LINETYPE-1
 62
     7
100
AcDbVertex
100
AcDb2dVertex
 10
43.32517631295343
 20
173.221468055653
 30
0.0
  0
VERTEX
  5
42
330
40
100
AcDbEntity
  8
EBENE_1
  6
AI-LINETYPE-1
 62
     7
100
AcDbVertex
100
AcDb2dVertex
 10
43.32517631295343
 20
157.5829738646841
 30
0.0
  0
SEQEND
  5
43
330
40
100
AcDbEntity
  8
EBENE_1
  6
AI-LINETYPE-1
  0
ENDBLK
  5
3F
330
3C
100
AcDbEntity
  8
0
100
AcDbBlockEnd
  0
BLOCK
  5
47
330
45
100
AcDbEntity
  8
0
100
AcDbBlockBegin
  2
BLOCK_3
 70
     0
 71
     0
 10
0.0
 20
0.0
 30
0.0
  3
BLOCK_3
  1

  0
POLYLINE
  5
49
330
45
100
AcDbEntity
  8
EBENE_1
  6
AI-LINETYPE-2
 62
     7
100
AcDb2dPolyline
 66
     1
 10
0.0
 20
0.0
 30
0.0
  0
VERTEX
  5
4A
330
49
100
AcDbEntity
  8
EBENE_1
  6
AI-LINETYPE-2
 62
     7
100
AcDbVertex
100
AcDb2dVertex
 10
34.81286213322387
 20
165.0019869921697
 30
0.0
  0
VERTEX
  5
4B
330
49
100
AcDbEntity
  8
EBENE_1
  6
AI-LINETYPE-2
 62
     7
100
AcDbVertex
100
AcDb2dVertex
 10
51.87642007166632
 20
165.0019869921697
 30
0.0
  0
SEQEND
  5
4C
330
49
100
AcDbEntity
  8
EBENE_1
  6
AI-LINETYPE-2
  0
ENDBLK
  5
48
330
45
100
AcDbEntity
  8
0
100
AcDbBlockEnd
  0
BLOCK
  5
50
330
4E
100
AcDbEntity
  8
0
100
AcDbBlockBegin
  2
BLOCK_4
 70
     0
 71
     0
 10
0.0
 20
0.0
 30
0.0
  3
BLOCK_4
  1

  0
SPLINE
  5
52
330
4E
100
AcDbEntity
  8
EBENE_1
 62
     7
100
AcDbSpline
210
0.0
220
0.0
230
1.0
 70
    11
 71
     3
 72
    20
 73
    16
 74
     0
 42
0.0000000001
 43
0.0000000001
 40
0.0
 40
0.0
 40
0.0
 40
0.0
 40
1.0
 40
1.0
 40
1.0
 40
2.0
 40
2.0
 40
2.0
 40
3.0
 40
3.0
 40
3.0
 40
4.0
 40
4.0
 40
4.0
 40
5.0
 40
5.0
 40
5.0
 40
5.0
 10
47.81878660913905
 20
164.9926852343595
 30
0.0
 10
47.81878660913905
 20
167.4726372194166
 30
0.0
 10
45.80840113872151
 20
169.4830226898341
 30
0.0
 10
43.32844915366442
 20
169.4830226898341
 30
0.0
 10
40.84849716860732
 20
169.4830226898341
 30
0.0
 10
38.83793944341551
 20
167.4726372194166
 30
0.0
 10
38.83793944341551
 20
164.9926852343595
 30
0.0
 10
38.83793944341551
 20
162.5127332493024
 30
0.0
 10
40.84849716860732
 20
160.5021755241106
 30
0.0
 10
43.32844915366442
 20
160.5021755241106
 30
0.0
 10
45.80840113872151
 20
160.5021755241106
 30
0.0
 10
47.81878660913905
 20
162.5127332493024
 30
0.0
 10
47.81878660913905
 20
164.9926852343595
 30
0.0
 10
47.81878660913905
 20
164.9926852343595
 30
0.0
 10
47.81878660913905
 20
164.9926852343595
 30
0.0
 10
47.81878660913905
 20
164.9926852343595
 30
0.0
  0
ENDBLK
  5
51
330
4E
100
AcDbEntity
  8
0
100
AcDbBlockEnd
  0
BLOCK
  5
55
330
53
100
AcDbEntity
  8
0
100
AcDbBlockBegin
  2
BLOCK_5
 70
     0
 71
     0
 10
0.0
 20
0.0
 30
0.0
  3
BLOCK_5
  1

  0
SPLINE
  5
57
330
53
100
AcDbEntity
  8
EBENE_1
 62
     7
100
AcDbSpline
210
0.0
220
0.0
230
1.0
 70
    11
 71
     3
 72
    17
 73
    13
 74
     0
 42
0.0000000001
 43
0.0000000001
 40
0.0
 40
0.0
 40
0.0
 40
0.0
 40
1.0
 40
1.0
 40
1.0
 40
2.0
 40
2.0
 40
2.0
 40
3.0
 40
3.0
 40
3.0
 40
4.0
 40
4.0
 40
4.0
 40
4.0
 10
37.76668700227708
 20
183.1910576256432
 30
0.0
 10
37.76668700227708
 20
182.7419894291409
 30
0.0
 10
40.2580078024355
 20
182.37784283635
 30
0.0
 10
43.33103297527835
 20
182.37784283635
 30
0.0
 10
46.40405814812121
 20
182.37784283635
 30
0.0
 10
48.89520669350537
 20
182.7419894291409
 30
0.0
 10
48.89520669350537
 20
183.1910576256432
 30
0.0
 10
48.89520669350537
 20
183.6401258221455
 30
0.0
 10
46.40405814812121
 20
184.0041001601622
 30
0.0
 10
43.33103297527835
 20
184.0041001601622
 30
0.0
 10
40.2580078024355
 20
184.0041001601622
 30
0.0
 10
37.76668700227708
 20
183.6401258221455
 30
0.0
 10
37.76668700227708
 20
183.1910576256432
 30
0.0
  0
ENDBLK
  5
56
330
53
100
AcDbEntity
  8
0
100
AcDbBlockEnd
  0
BLOCK
  5
5A
330
58
100
AcDbEntity
  8
0
100
AcDbBlockBegin
  2
BLOCK_6
 70
     0
 71
     0
 10
0.0
 20
0.0
 30
0.0
  3
BLOCK_6
  1

  0
SPLINE
  5
5C
330
58
100
AcDbEntity
  8
EBENE_1
 62
     7
100
AcDbSpline
210
0.0
220
0.0
230
1.0
 70
    11
 71
     3
 72
    20
 73
    16
 74
     0
 42
0.0000000001
 43
0.0000000001
 40
0.0
 40
0.0
 40
0.0
 40
0.0
 40
1.0
 40
1.0
 40
1.0
 40
2.0
 40
2.0
 40
2.0
 40
3.0
 40
3.0
 40
3.0
 40
4.0
 40
4.0
 40
4.0
 40
5.0
 40
5.0
 40
5.0
 40
5.0
 10
80.42334253631778
 20
147.4407850108829
 30
0.0
 10
80.42334253631778
 20
167.9279065877923
 30
0.0
 10
63.81539847579963
 20
184.5358506483105
 30
0.0
 10
43.32844915366442
 20
184.5358506483105
 30
0.0
 10
22.84149983152921
 20
184.5358506483105
 30
0.0
 10
6.233555771011056
 20
167.9279065877923
 30
0.0
 10
6.233555771011056
 20
147.4407850108829
 30
0.0
 10
6.233555771011056
 20
126.9541801982962
 30
0.0
 10
22.84149983152921
 20
110.3460638830038
 30
0.0
 10
43.32844915366442
 20
110.3460638830038
 30
0.0
 10
63.81539847579963
 20
110.3460638830038
 30
0.0
 10
80.42334253631778
 20
126.9541801982962
 30
0.0
 10
80.42334253631778
 20
147.4407850108829
 30
0.0
 10
80.42334253631778
 20
147.4407850108829
 30
0.0
 10
80.42334253631778
 20
147.4407850108829
 30
0.0
 10
80.42334253631778
 20
147.4407850108829
 30
0.0
  0
ENDBLK
  5
5B
330
58
100
AcDbEntity
  8
0
100
AcDbBlockEnd
  0
BLOCK
  5
5F
330
5D
100
AcDbEntity
  8
0
100
AcDbBlockBegin
  2
BLOCK_7
 70
     0
 71
     0
 10
0.0
 20
0.0
 30
0.0
  3
BLOCK_7
  1

  0
POLYLINE
  5
61
330
5D
100
AcDbEntity
  8
EBENE_1
  6
AI-LINETYPE-3
 62
     7
100
AcDb2dPolyline
 66
     1
 10
0.0
 20
0.0
 30
0.0
  0
VERTEX
  5
62
330
61
100
AcDbEntity
  8
EBENE_1
  6
AI-LINETYPE-3
 62
     7
100
AcDbVertex
100
AcDb2dVertex
 10
157.909052152363
 20
165.0019869921697
 30
0.0
  0
VERTEX
  5
63
330
61
100
AcDbEntity
  8
EBENE_1
  6
AI-LINETYPE-3
 62
     7
100
AcDbVertex
100
AcDb2dVertex
 10
147.5031412391659
 20
165.0019869921697
 30
0.0
  0
SEQEND
  5
64
330
61
100
AcDbEntity
  8
EBENE_1
  6
AI-LINETYPE-3
  0
ENDBLK
  5
60
330
5D
100
AcDbEntity
  8
0
100
AcDbBlockEnd
  0
BLOCK
  5
68
330
66
100
AcDbEntity
  8
0
100
AcDbBlockBegin
  2
BLOCK_8
 70
     0
 71
     0
 10
0.0
 20
0.0
 30
0.0
  3
BLOCK_8
  1

  0
POLYLINE
  5
6A
330
66
100
AcDbEntity
  8
EBENE_1
 62
     7
100
AcDb2dPolyline
 66
     1
 10
0.0
 20
0.0
 30
0.0
  0
VERTEX
  5
6B
330
6A
100
AcDbEntity
  8
EBENE_1
 62
     7
100
AcDbVertex
100
AcDb2dVertex
 10
148.7134032831342
 20
170.4686645081641
 30
0.0
  0
VERTEX
  5
6C
330
6A
100
AcDbEntity
  8
EBENE_1
 62
     7
100
AcDbVertex
100
AcDb2dVertex
 10
148.7134032831342
 20
159.5744113099328
 30
0.0
  0
SEQEND
  5
6D
330
6A
100
AcDbEntity
  8
EBENE_1
  0
ENDBLK
  5
69
330
66
100
AcDbEntity
  8
0
100
AcDbBlockEnd
  0
BLOCK
  5
70
330
6E
100
AcDbEntity
  8
0
100
AcDbBlockBegin
  2
BLOCK_9
 70
     0
 71
     0
 10
0.0
 20
0.0
 30
0.0
  3
BLOCK_9
  1

  0
POLYLINE
  5
72
330
6E
100
AcDbEntity
  8
EBENE_1
 62
     7
100
AcDb2dPolyline
 66
     1
 10
0.0
 20
0.0
 30
0.0
  0
VERTEX
  5
73
330
72
100
AcDbEntity
  8
EBENE_1
 62
     7
100
AcDbVertex
100
AcDb2dVertex
 10
157.3040933851532
 20
169.4924967024185
 30
0.0
  0
VERTEX
  5
74
330
72
100
AcDbEntity
  8
EBENE_1
 62
     7
100
AcDbVertex
100
AcDb2dVertex
 10
157.3040933851532
 20
158.5202120914464
 30
0.0
  0
SEQEND
  5
75
330
72
100
AcDbEntity
  8
EBENE_1
  0
ENDBLK
  5
71
330
6E
100
AcDbEntity
  8
0
100
AcDbBlockEnd
  0
BLOCK
  5
78
330
76
100
AcDbEntity
  8
0
100
AcDbBlockBegin
  2
BLOCK_10
 70
     0
 71
     0
 10
0.0
 20
0.0
 30
0.0
  3
BLOCK_10
  1

  0
POLYLINE
  5
7A
330
76
100
AcDbEntity
  8
EBENE_1
 62
     7
100
AcDb2dPolyline
 66
     1
 10
0.0
 20
0.0
 30
0.0
  0
VERTEX
  5
7B
330
7A
100
AcDbEntity
  8
EBENE_1
 62
     7
100
AcDbVertex
100
AcDb2dVertex
 10
156.3277533246333
 20
169.4924967024185
 30
0.0
  0
VERTEX
  5
7C
330
7A
100
AcDbEntity
  8
EBENE_1
 62
     7
100
AcDbVertex
100
AcDb2dVertex
 10
156.3277533246333
 20
165.0019869921697
 30
0.0
  0
SEQEND
  5
7D
330
7A
100
AcDbEntity
  8
EBENE_1
  0
ENDBLK
  5
79
330
76
100
AcDbEntity
  8
0
100
AcDbBlockEnd
  0
BLOCK
  5
80
330
7E
100
AcDbEntity
  8
0
100
AcDbBlockBegin
  2
BLOCK_11
 70
     0
 71
     0
 10
0.0
 20
0.0
 30
0.0
  3
BLOCK_11
  1

  0
POLYLINE
  5
82
330
7E
100
AcDbEntity
  8
EBENE_1
 62
     7
100
AcDb2dPolyline
 66
     1
 10
0.0
 20
0.0
 30
0.0
  0
VERTEX
  5
83
330
82
100
AcDbEntity
  8
EBENE_1
 62
     7
100
AcDbVertex
100
AcDb2dVertex
 10
155.3517577736621
 20
170.4686645081641
 30
0.0
  0
VERTEX
  5
84
330
82
100
AcDbEntity
  8
EBENE_1
 62
     7
100
AcDbVertex
100
AcDb2dVertex
 10
155.3517577736621
 20
165.0019869921697
 30
0.0
  0
SEQEND
  5
85
330
82
100
AcDbEntity
  8
EBENE_1
  0
ENDBLK
  5
81
330
7E
100
AcDbEntity
  8
0
100
AcDbBlockEnd
  0
BLOCK
  5
88
330
86
100
AcDbEntity
  8
0
100
AcDbBlockBegin
  2
BLOCK_12
 70
     0
 71
     0
 10
0.0
 20
0.0
 30
0.0
  3
BLOCK_12
  1

  0
POLYLINE
  5
8A
330
86
100
AcDbEntity
  8
EBENE_1
 62
     7
100
AcDb2dPolyline
 66
     1
 10
0.0
 20
0.0
 30
0.0
  0
VERTEX
  5
8B
330
8A
100
AcDbEntity
  8
EBENE_1
 62
     7
100
AcDbVertex
100
AcDb2dVertex
 10
189.7131401435439
 20
104.1080294878619
 30
0.0
  0
VERTEX
  5
8C
330
8A
100
AcDbEntity
  8
EBENE_1
 62
     7
100
AcDbVertex
100
AcDb2dVertex
 10
189.7131401435439
 20
194.6975042916034
 30
0.0
  0
SEQEND
  5
8D
330
8A
100
AcDbEntity
  8
EBENE_1
  0
ENDBLK
  5
89
330
86
100
AcDbEntity
  8
0
100
AcDbBlockEnd
  0
BLOCK
  5
90
330
8E
100
AcDbEntity
  8
0
100
AcDbBlockBegin
  2
BLOCK_13
 70
     0
 71
     0
 10
0.0
 20
0.0
 30
0.0
  3
BLOCK_13
  1

  0
MTEXT
  5
92
330
8E
100
AcDbEntity
  8
EBENE_1
 62
     7
100
AcDbMText
 10
19.0183051167732
 20
207.9149576303129
 30
0.0
 40
3.904721876651723
 41
0.0
 71
     7
 72
     1
  1
\fMyriad Pro|b0|i0|c0|p34;\W0.9;UBS 14 Draufsicht
  0
ENDBLK
  5
91
330
8E
100
AcDbEntity
  8
0
100
AcDbBlockEnd
  0
BLOCK
  5
95
330
93
100
AcDbEntity
  8
0
100
AcDbBlockBegin
  2
BLOCK_14
 70
     0
 71
     0
 10
0.0
 20
0.0
 30
0.0
  3
BLOCK_14
  1

  0
MTEXT
  5
97
330
93
100
AcDbEntity
  8
EBENE_1
 62
     7
100
AcDbMText
 10
137.6239854256634
 20
207.9149576303129
 30
0.0
 40
3.904721876651723
 41
0.0
 71
     7
 72
     1
  1
\fMyriad Pro|b0|i0|c0|p34;\W0.9;UBS 14 Vertikalschnitt
  0
ENDBLK
  5
96
330
93
100
AcDbEntity
  8
0
100
AcDbBlockEnd
  0
BLOCK
  5
9A
330
98
100
AcDbEntity
  8
0
100
AcDbBlockBegin
  2
BLOCK_15
 70
     0
 71
     0
 10
0.0
 20
0.0
 30
0.0
  3
BLOCK_15
  1

  0
SPLINE
  5
9C
330
98
100
AcDbEntity
  8
EBENE_1
 62
     7
100
AcDbSpline
210
0.0
220
0.0
230
1.0
 70
     8
 71
     3
 72
    17
 73
    13
 74
     0
 42
0.0000000001
 43
0.0000000001
 40
0.0
 40
0.0
 40
0.0
 40
0.0
 40
1.0
 40
1.0
 40
1.0
 40
2.0
 40
2.0
 40
2.0
 40
3.0
 40
3.0
 40
3.0
 40
4.0
 40
4.0
 40
4.0
 40
4.0
 10
38.10086126434631
 20
190.4669270357166
 30
0.0
 10
14.33831515483556
 20
187.579764764303
 30
0.0
 10
-2.58468288780869
 20
165.9759154858498
 30
0.0
 10
0.3024793836049357
 20
142.2131971215648
 30
0.0
 10
3.189469400244299
 20
118.450651012054
 30
0.0
 10
24.79331867869751
 20
101.5276529694098
 30
0.0
 10
48.55603704298252
 20
104.4149874955976
 30
0.0
 10
72.31858315249328
 20
107.301977512237
 30
0.0
 10
89.24158119513753
 20
128.9058267906902
 30
0.0
 10
86.3544189237239
 20
152.6685451549752
 30
0.0
 10
83.94922551069672
 20
172.4650973418664
 30
0.0
 10
68.34638805800022
 20
188.0655232277232
 30
0.0
 10
48.54949136156055
 20
190.4677883095879
 30
0.0
  0
ENDBLK
  5
9B
330
98
100
AcDbEntity
  8
0
100
AcDbBlockEnd
  0
BLOCK
  5
9F
330
9D
100
AcDbEntity
  8
0
100
AcDbBlockBegin
  2
BLOCK_16
 70
     0
 71
     0
 10
0.0
 20
0.0
 30
0.0
  3
BLOCK_16
  1

  0
SPLINE
  5
A1
330
9D
100
AcDbEntity
  8
EBENE_1
 62
     7
100
AcDbSpline
210
0.0
220
0.0
230
1.0
 70
    11
 71
     3
 72
    65
 73
    61
 74
     0
 42
0.0000000001
 43
0.0000000001
 40
0.0
 40
0.0
 40
0.0
 40
0.0
 40
1.0
 40
1.0
 40
1.0
 40
2.0
 40
2.0
 40
2.0
 40
3.0
 40
3.0
 40
3.0
 40
4.0
 40
4.0
 40
4.0
 40
5.0
 40
5.0
 40
5.0
 40
6.0
 40
6.0
 40
6.0
 40
7.0
 40
7.0
 40
7.0
 40
8.0
 40
8.0
 40
8.0
 40
9.0
 40
9.0
 40
9.0
 40
10.0
 40
10.0
 40
10.0
 40
11.0
 40
11.0
 40
11.0
 40
12.0
 40
12.0
 40
12.0
 40
13.0
 40
13.0
 40
13.0
 40
14.0
 40
14.0
 40
14.0
 40
15.0
 40
15.0
 40
15.0
 40
16.0
 40
16.0
 40
16.0
 40
17.0
 40
17.0
 40
17.0
 40
18.0
 40
18.0
 40
18.0
 40
19.0
 40
19.0
 40
19.0
 40
20.0
 40
20.0
 40
20.0
 40
20.0
 10
189.7131401435439
 20
194.6975042916034
 30
0.0
 10
189.7131401435439
 20
194.6975042916034
 30
0.0
 10
188.7368000830241
 20
194.6975042916034
 30
0.0
 10
188.7368000830241
 20
194.6975042916034
 30
0.0
 10
188.7368000830241
 20
194.6975042916034
 30
0.0
 10
188.7330104779904
 20
188.0991129087044
 30
0.0
 10
188.7330104779904
 20
188.0991129087044
 30
0.0
 10
188.7340440066359
 20
187.8453816262158
 30
0.0
 10
188.5404296403649
 20
187.6329914895501
 30
0.0
 10
188.2879041412961
 20
187.6104261141217
 30
0.0
 10
188.2879041412961
 20
187.6104261141217
 30
0.0
 10
158.8337157806041
 20
185.0782809324631
 30
0.0
 10
158.8337157806041
 20
185.0782809324631
 30
0.0
 10
156.3098388281101
 20
184.8588283500527
 30
0.0
 10
154.3730061463026
 20
182.7445732507548
 30
0.0
 10
154.3754177131423
 20
180.2108777761278
 30
0.0
 10
154.3754177131423
 20
180.2108777761278
 30
0.0
 10
154.3671494839777
 20
170.952872678616
 30
0.0
 10
154.3671494839777
 20
170.952872678616
 30
0.0
 10
154.3685275221718
 20
170.6865667976061
 30
0.0
 10
154.1535535638922
 20
170.4698702915839
 30
0.0
 10
153.8872476828824
 20
170.4686645081641
 30
0.0
 10
153.8872476828824
 20
170.4686645081641
 30
0.0
 10
148.7134032831342
 20
170.4686645081641
 30
0.0
 10
148.7134032831342
 20
170.4686645081641
 30
0.0
 10
148.7134032831342
 20
170.4686645081641
 30
0.0
 10
148.7134032831342
 20
169.4924967024185
 30
0.0
 10
148.7134032831342
 20
169.4924967024185
 30
0.0
 10
148.7134032831342
 20
169.4924967024185
 30
0.0
 10
154.3671494839777
 20
169.4887070973848
 30
0.0
 10
154.3671494839777
 20
169.4887070973848
 30
0.0
 10
154.9097520229045
 20
169.4875013139649
 30
0.0
 10
155.350379735468
 20
169.9262342240115
 30
0.0
 10
155.3517577736621
 20
170.4686645081641
 30
0.0
 10
155.3517577736621
 20
170.4686645081641
 30
0.0
 10
155.3476236590798
 20
180.1366359684207
 30
0.0
 10
155.3476236590798
 20
180.1366359684207
 30
0.0
 10
155.3472791495312
 20
182.1571844705198
 30
0.0
 10
156.8920599651173
 20
183.842525181904
 30
0.0
 10
158.9050292571488
 20
184.0180527968774
 30
0.0
 10
158.9050292571488
 20
184.0180527968774
 30
0.0
 10
188.2024657732619
 20
186.5753471755784
 30
0.0
 10
188.2024657732619
 20
186.5753471755784
 30
0.0
 10
188.2165906647514
 20
186.5765529589982
 30
0.0
 10
188.2307155562409
 20
186.5772419780953
 30
0.0
 10
188.245184957279
 20
186.5772419780953
 30
0.0
 10
188.5159694624196
 20
186.5777587424181
 30
0.0
 10
188.7364555734756
 20
186.3586506695562
 30
0.0
 10
188.7368000830241
 20
186.087521654867
 30
0.0
 10
188.7368000830241
 20
186.087521654867
 30
0.0
 10
188.7368000830241
 20
184.4671209933798
 30
0.0
 10
188.7368000830241
 20
184.4671209933798
 30
0.0
 10
188.7368000830241
 20
184.4671209933798
 30
0.0
 10
189.2601100872336
 20
184.5069118462344
 30
0.0
 10
189.2601100872336
 20
184.5069118462344
 30
0.0
 10
189.5150471531421
 20
184.5263766357261
 30
0.0
 10
189.7121066148984
 20
184.7385945176175
 30
0.0
 10
189.7131401435439
 20
184.994220602623
 30
0.0
 10
189.7131401435439
 20
184.994220602623
 30
0.0
 10
189.7131401435439
 20
194.6975042916034
 30
0.0
 10
189.7131401435439
 20
194.6975042916034
 30
0.0
  0
ENDBLK
  5
A0
330
9D
100
AcDbEntity
  8
0
100
AcDbBlockEnd
  0
BLOCK
  5
A4
330
A2
100
AcDbEntity
  8
0
100
AcDbBlockBegin
  2
BLOCK_17
 70
     0
 71
     0
 10
0.0
 20
0.0
 30
0.0
  3
BLOCK_17
  1

  0
SPLINE
  5
A6
330
A2
100
AcDbEntity
  8
EBENE_1
 62
     7
100
AcDbSpline
210
0.0
220
0.0
230
1.0
 70
    11
 71
     3
 72
    29
 73
    25
 74
     0
 42
0.0000000001
 43
0.0000000001
 40
0.0
 40
0.0
 40
0.0
 40
0.0
 40
1.0
 40
1.0
 40
1.0
 40
2.0
 40
2.0
 40
2.0
 40
3.0
 40
3.0
 40
3.0
 40
4.0
 40
4.0
 40
4.0
 40
5.0
 40
5.0
 40
5.0
 40
6.0
 40
6.0
 40
6.0
 40
7.0
 40
7.0
 40
7.0
 40
8.0
 40
8.0
 40
8.0
 40
8.0
 10
156.3277533246333
 20
169.4924967024185
 30
0.0
 10
156.3277533246333
 20
169.4924967024185
 30
0.0
 10
157.3040933851532
 20
169.4924967024185
 30
0.0
 10
157.3040933851532
 20
169.4924967024185
 30
0.0
 10
157.3040933851532
 20
169.4924967024185
 30
0.0
 10
157.2999592705708
 20
180.1323295990641
 30
0.0
 10
157.2999592705708
 20
180.1323295990641
 30
0.0
 10
157.2992702514738
 20
181.1529391365694
 30
0.0
 10
158.0826849648196
 20
182.0028441927805
 30
0.0
 10
159.1000216616139
 20
182.085181974878
 30
0.0
 10
159.1000216616139
 20
182.085181974878
 30
0.0
 10
185.8084689205618
 20
184.3889173258646
 30
0.0
 10
185.8084689205618
 20
184.3889173258646
 30
0.0
 10
185.8084689205618
 20
184.3889173258646
 30
0.0
 10
185.8084689205618
 20
185.4236517548594
 30
0.0
 10
185.8084689205618
 20
185.4236517548594
 30
0.0
 10
185.8084689205618
 20
185.4236517548594
 30
0.0
 10
159.019406427259
 20
183.1250840471007
 30
0.0
 10
159.019406427259
 20
183.1250840471007
 30
0.0
 10
157.4994302991668
 20
183.0039889407942
 30
0.0
 10
156.3280978341819
 20
181.7355047831252
 30
0.0
 10
156.3277533246333
 20
180.2108777761278
 30
0.0
 10
156.3277533246333
 20
180.2108777761278
 30
0.0
 10
156.3277533246333
 20
169.4924967024185
 30
0.0
 10
156.3277533246333
 20
169.4924967024185
 30
0.0
  0
ENDBLK
  5
A5
330
A2
100
AcDbEntity
  8
0
100
AcDbBlockEnd
  0
BLOCK
  5
A9
330
A7
100
AcDbEntity
  8
0
100
AcDbBlockBegin
  2
BLOCK_18
 70
     0
 71
     0
 10
0.0
 20
0.0
 30
0.0
  3
BLOCK_18
  1

  0
SPLINE
  5
AB
330
A7
100
AcDbEntity
  8
EBENE_1
 62
     7
100
AcDbSpline
210
0.0
220
0.0
230
1.0
 70
     8
 71
     3
 72
     8
 73
     4
 74
     0
 42
0.0000000001
 43
0.0000000001
 40
0.0
 40
0.0
 40
0.0
 40
0.0
 40
1.0
 40
1.0
 40
1.0
 40
1.0
 10
157.3037488756046
 20
132.0815158089935
 30
0.0
 10
157.0949760891985
 20
121.9546576301016
 30
0.0
 10
165.1337618944804
 20
113.3591443944033
 30
0.0
 10
175.8152804464976
 20
112.2880642080391
 30
0.0
  0
ENDBLK
  5
AA
330
A7
100
AcDbEntity
  8
0
100
AcDbBlockEnd
  0
BLOCK
  5
AE
330
AC
100
AcDbEntity
  8
0
100
AcDbBlockBegin
  2
BLOCK_19
 70
     0
 71
     0
 10
0.0
 20
0.0
 30
0.0
  3
BLOCK_19
  1

  0
SPLINE
  5
B0
330
AC
100
AcDbEntity
  8
EBENE_1
 62
     7
100
AcDbSpline
210
0.0
220
0.0
230
1.0
 70
     8
 71
     3
 72
     8
 73
     4
 74
     0
 42
0.0000000001
 43
0.0000000001
 40
0.0
 40
0.0
 40
0.0
 40
0.0
 40
1.0
 40
1.0
 40
1.0
 40
1.0
 10
156.3277533246333
 20
132.0970187386771
 30
0.0
 10
156.1148464236449
 20
121.6473551128173
 30
0.0
 10
164.2500949025139
 20
112.7197346723409
 30
0.0
 10
175.2116997174818
 20
111.3730468471567
 30
0.0
  0
ENDBLK
  5
AF
330
AC
100
AcDbEntity
  8
0
100
AcDbBlockEnd
  0
BLOCK
  5
B3
330
B1
100
AcDbEntity
  8
0
100
AcDbBlockBegin
  2
BLOCK_20
 70
     0
 71
     0
 10
0.0
 20
0.0
 30
0.0
  3
BLOCK_20
  1

  0
POLYLINE
  5
B5
330
B1
100
AcDbEntity
  8
EBENE_1
 62
     7
100
AcDb2dPolyline
 66
     1
 10
0.0
 20
0.0
 30
0.0
  0
VERTEX
  5
B6
330
B5
100
AcDbEntity
  8
EBENE_1
 62
     7
100
AcDbVertex
100
AcDb2dVertex
 10
188.7175075483067
 20
185.5018554223745
 30
0.0
  0
VERTEX
  5
B7
330
B5
100
AcDbEntity
  8
EBENE_1
 62
     7
100
AcDbVertex
100
AcDb2dVertex
 10
185.7888318762959
 20
185.4236517548594
 30
0.0
  0
SEQEND
  5
B8
330
B5
100
AcDbEntity
  8
EBENE_1
  0
ENDBLK
  5
B4
330
B1
100
AcDbEntity
  8
0
100
AcDbBlockEnd
  0
BLOCK
  5
BB
330
B9
100
AcDbEntity
  8
0
100
AcDbBlockBegin
  2
BLOCK_21
 70
     0
 71
     0
 10
0.0
 20
0.0
 30
0.0
  3
BLOCK_21
  1

  0
POLYLINE
  5
BD
330
B9
100
AcDbEntity
  8
EBENE_1
 62
     7
100
AcDb2dPolyline
 66
     1
 10
0.0
 20
0.0
 30
0.0
  0
VERTEX
  5
BE
330
BD
100
AcDbEntity
  8
EBENE_1
 62
     7
100
AcDbVertex
100
AcDb2dVertex
 10
188.8150037505393
 20
184.4671209933798
 30
0.0
  0
VERTEX
  5
BF
330
BD
100
AcDbEntity
  8
EBENE_1
 62
     7
100
AcDbVertex
100
AcDb2dVertex
 10
185.8863280785284
 20
184.3889173258646
 30
0.0
  0
SEQEND
  5
C0
330
BD
100
AcDbEntity
  8
EBENE_1
  0
ENDBLK
  5
BC
330
B9
100
AcDbEntity
  8
0
100
AcDbBlockEnd
  0
BLOCK
  5
C3
330
C1
100
AcDbEntity
  8
0
100
AcDbBlockBegin
  2
BLOCK_22
 70
     0
 71
     0
 10
0.0
 20
0.0
 30
0.0
  3
BLOCK_22
  1

  0
SPLINE
  5
C5
330
C1
100
AcDbEntity
  8
EBENE_1
  6
AI-LINETYPE-4
 62
     7
100
AcDbSpline
210
0.0
220
0.0
230
1.0
 70
    11
 71
     3
 72
    20
 73
    16
 74
     0
 42
0.0000000001
 43
0.0000000001
 40
0.0
 40
0.0
 40
0.0
 40
0.0
 40
1.0
 40
1.0
 40
1.0
 40
2.0
 40
2.0
 40
2.0
 40
3.0
 40
3.0
 40
3.0
 40
4.0
 40
4.0
 40
4.0
 40
5.0
 40
5.0
 40
5.0
 40
5.0
 10
48.7949544148846
 20
164.9926852343595
 30
0.0
 10
48.7949544148846
 20
168.0117946628582
 30
0.0
 10
46.34755858216311
 20
170.4591904955797
 30
0.0
 10
43.32844915366442
 20
170.4591904955797
 30
0.0
 10
40.30933972516572
 20
170.4591904955797
 30
0.0
 10
37.86177163766997
 20
168.0117946628582
 30
0.0
 10
37.86177163766997
 20
164.9926852343595
 30
0.0
 10
37.86177163766997
 20
161.9735758058608
 30
0.0
 10
40.30933972516572
 20
159.526007718365
 30
0.0
 10
43.32844915366442
 20
159.526007718365
 30
0.0
 10
46.34755858216311
 20
159.526007718365
 30
0.0
 10
48.7949544148846
 20
161.9735758058608
 30
0.0
 10
48.7949544148846
 20
164.9926852343595
 30
0.0
 10
48.7949544148846
 20
164.9926852343595
 30
0.0
 10
48.7949544148846
 20
164.9926852343595
 30
0.0
 10
48.7949544148846
 20
164.9926852343595
 30
0.0
  0
ENDBLK
  5
C4
330
C1
100
AcDbEntity
  8
0
100
AcDbBlockEnd
  0
BLOCK
  5
C9
330
C7
100
AcDbEntity
  8
0
100
AcDbBlockBegin
  2
BLOCK_23
 70
     0
 71
     0
 10
0.0
 20
0.0
 30
0.0
  3
BLOCK_23
  1

  0
POLYLINE
  5
CB
330
C7
100
AcDbEntity
  8
EBENE_1
 62
     7
100
AcDb2dPolyline
 66
     1
 10
0.0
 20
0.0
 30
0.0
  0
VERTEX
  5
CC
330
CB
100
AcDbEntity
  8
EBENE_1
 62
     7
100
AcDbVertex
100
AcDb2dVertex
 10
48.20601534168114
 20
190.8512274370962
 30
0.0
  0
VERTEX
  5
CD
330
CB
100
AcDbEntity
  8
EBENE_1
 62
     7
100
AcDbVertex
100
AcDb2dVertex
 10
48.20601534168114
 20
192.6278631788396
 30
0.0
  0
SEQEND
  5
CE
330
CB
100
AcDbEntity
  8
EBENE_1
  0
ENDBLK
  5
CA
330
C7
100
AcDbEntity
  8
0
100
AcDbBlockEnd
  0
BLOCK
  5
D1
330
CF
100
AcDbEntity
  8
0
100
AcDbBlockBegin
  2
BLOCK_24
 70
     0
 71
     0
 10
0.0
 20
0.0
 30
0.0
  3
BLOCK_24
  1

  0
POLYLINE
  5
D3
330
CF
100
AcDbEntity
  8
EBENE_1
 62
     7
100
AcDb2dPolyline
 66
     1
 10
0.0
 20
0.0
 30
0.0
  0
VERTEX
  5
D4
330
D3
100
AcDbEntity
  8
EBENE_1
 62
     7
100
AcDbVertex
100
AcDb2dVertex
 10
38.44416502945146
 20
190.8512274370962
 30
0.0
  0
VERTEX
  5
D5
330
D3
100
AcDbEntity
  8
EBENE_1
 62
     7
100
AcDbVertex
100
AcDb2dVertex
 10
38.44416502945146
 20
192.6278631788396
 30
0.0
  0
SEQEND
  5
D6
330
D3
100
AcDbEntity
  8
EBENE_1
  0
ENDBLK
  5
D2
330
CF
100
AcDbEntity
  8
0
100
AcDbBlockEnd
  0
BLOCK
  5
D9
330
D7
100
AcDbEntity
  8
0
100
AcDbBlockBegin
  2
BLOCK_25
 70
     0
 71
     0
 10
0.0
 20
0.0
 30
0.0
  3
BLOCK_25
  1

  0
SPLINE
  5
DB
330
D7
100
AcDbEntity
  8
EBENE_1
 62
     7
100
AcDbSpline
210
0.0
220
0.0
230
1.0
 70
     8
 71
     3
 72
     8
 73
     4
 74
     0
 42
0.0000000001
 43
0.0000000001
 40
0.0
 40
0.0
 40
0.0
 40
0.0
 40
1.0
 40
1.0
 40
1.0
 40
1.0
 10
46.4004407978617
 20
194.5719305611661
 30
0.0
 10
44.35336506052624
 20
194.7264430936795
 30
0.0
 10
42.29767658447766
 20
194.726787603228
 30
0.0
 10
40.25060084714221
 20
194.5731363445859
 30
0.0
  0
ENDBLK
  5
DA
330
D7
100
AcDbEntity
  8
0
100
AcDbBlockEnd
  0
BLOCK
  5
DE
330
DC
100
AcDbEntity
  8
0
100
AcDbBlockBegin
  2
BLOCK_26
 70
     0
 71
     0
 10
0.0
 20
0.0
 30
0.0
  3
BLOCK_26
  1

  0
SPLINE
  5
E0
330
DC
100
AcDbEntity
  8
EBENE_1
 62
     7
100
AcDbSpline
210
0.0
220
0.0
230
1.0
 70
     8
 71
     3
 72
     8
 73
     4
 74
     0
 42
0.0000000001
 43
0.0000000001
 40
0.0
 40
0.0
 40
0.0
 40
0.0
 40
1.0
 40
1.0
 40
1.0
 40
1.0
 10
40.25060084714221
 20
194.5731363445859
 30
0.0
 10
39.23171385737957
 20
194.4968274795876
 30
0.0
 10
38.44416502945146
 20
193.647955952022
 30
0.0
 10
38.44416502945146
 20
192.6263128858712
 30
0.0
  0
ENDBLK
  5
DF
330
DC
100
AcDbEntity
  8
0
100
AcDbBlockEnd
  0
BLOCK
  5
E3
330
E1
100
AcDbEntity
  8
0
100
AcDbBlockBegin
  2
BLOCK_27
 70
     0
 71
     0
 10
0.0
 20
0.0
 30
0.0
  3
BLOCK_27
  1

  0
SPLINE
  5
E5
330
E1
100
AcDbEntity
  8
EBENE_1
 62
     7
100
AcDbSpline
210
0.0
220
0.0
230
1.0
 70
     8
 71
     3
 72
     8
 73
     4
 74
     0
 42
0.0000000001
 43
0.0000000001
 40
0.0
 40
0.0
 40
0.0
 40
0.0
 40
1.0
 40
1.0
 40
1.0
 40
1.0
 10
48.20601534168114
 20
192.6251071024514
 30
0.0
 10
48.20601534168114
 20
193.6464056590537
 30
0.0
 10
47.41881102330155
 20
194.4952771866192
 30
0.0
 10
46.4004407978617
 20
194.5719305611661
 30
0.0
  0
ENDBLK
  5
E4
330
E1
100
AcDbEntity
  8
0
100
AcDbBlockEnd
  0
BLOCK
  5
E8
330
E6
100
AcDbEntity
  8
0
100
AcDbBlockBegin
  2
BLOCK_28
 70
     0
 71
     0
 10
0.0
 20
0.0
 30
0.0
  3
BLOCK_28
  1

  0
SPLINE
  5
EA
330
E6
100
AcDbEntity
  8
EBENE_1
 62
     7
100
AcDbSpline
210
0.0
220
0.0
230
1.0
 70
     8
 71
     3
 72
     8
 73
     4
 74
     0
 42
0.0000000001
 43
0.0000000001
 40
0.0
 40
0.0
 40
0.0
 40
0.0
 40
1.0
 40
1.0
 40
1.0
 40
1.0
 10
38.10086126434631
 20
190.4669270357166
 30
0.0
 10
38.29688719745703
 20
190.4906981945648
 30
0.0
 10
38.44416502945146
 20
190.6570963065024
 30
0.0
 10
38.44416502945146
 20
190.8545002778072
 30
0.0
  0
ENDBLK
  5
E9
330
E6
100
AcDbEntity
  8
0
100
AcDbBlockEnd
  0
BLOCK
  5
ED
330
EB
100
AcDbEntity
  8
0
100
AcDbBlockBegin
  2
BLOCK_29
 70
     0
 71
     0
 10
0.0
 20
0.0
 30
0.0
  3
BLOCK_29
  1

  0
SPLINE
  5
EF
330
EB
100
AcDbEntity
  8
EBENE_1
 62
     7
100
AcDbSpline
210
0.0
220
0.0
230
1.0
 70
     8
 71
     3
 72
     8
 73
     4
 74
     0
 42
0.0000000001
 43
0.0000000001
 40
0.0
 40
0.0
 40
0.0
 40
0.0
 40
1.0
 40
1.0
 40
1.0
 40
1.0
 10
48.20601534168114
 20
190.8553615516785
 30
0.0
 10
48.20601534168114
 20
190.6579575803737
 30
0.0
 10
48.35346542844983
 20
190.4915594684362
 30
0.0
 10
48.54949136156055
 20
190.4677883095879
 30
0.0
  0
ENDBLK
  5
EE
330
EB
100
AcDbEntity
  8
0
100
AcDbBlockEnd
  0
BLOCK
  5
F2
330
F0
100
AcDbEntity
  8
0
100
AcDbBlockBegin
  2
BLOCK_30
 70
     0
 71
     0
 10
0.0
 20
0.0
 30
0.0
  3
BLOCK_30
  1

  0
MTEXT
  5
F4
330
F0
100
AcDbEntity
  8
EBENE_1
 62
     7
100
AcDbMText
 10
39.57656791545308
 20
97.6064452880984
 30
0.0
 40
2.928541407488792
 41
0.0
 71
     7
 72
     1
  1
\fMyriad Pro|b0|i0|c0|p34;\W0.8;395
  0
ENDBLK
  5
F3
330
F0
100
AcDbEntity
  8
0
100
AcDbBlockEnd
  0
BLOCK
  5
F7
330
F5
100
AcDbEntity
  8
0
100
AcDbBlockBegin
  2
BLOCK_31
 70
     0
 71
     0
 10
0.0
 20
0.0
 30
0.0
  3
BLOCK_31
  1

  0
POLYLINE
  5
F9
330
F5
100
AcDbEntity
  8
EBENE_1
 62
     7
100
AcDb2dPolyline
 66
     1
 10
0.0
 20
0.0
 30
0.0
  0
VERTEX
  5
FA
330
F9
100
AcDbEntity
  8
EBENE_1
 62
     7
100
AcDbVertex
100
AcDb2dVertex
 10
6.230282930300069
 20
96.14227970686721
 30
0.0
  0
VERTEX
  5
FB
330
F9
100
AcDbEntity
  8
EBENE_1
 62
     7
100
AcDbVertex
100
AcDb2dVertex
 10
80.41989744083253
 20
96.14227970686721
 30
0.0
  0
SEQEND
  5
FC
330
F9
100
AcDbEntity
  8
EBENE_1
  0
ENDBLK
  5
F8
330
F5
100
AcDbEntity
  8
0
100
AcDbBlockEnd
  0
BLOCK
  5
FF
330
FD
100
AcDbEntity
  8
0
100
AcDbBlockBegin
  2
BLOCK_32
 70
     0
 71
     0
 10
0.0
 20
0.0
 30
0.0
  3
BLOCK_32
  1

  0
POLYLINE
  5
101
330
FD
100
AcDbEntity
  8
EBENE_1
 62
     7
100
AcDb2dPolyline
 66
     1
 10
0.0
 20
0.0
 30
0.0
  0
VERTEX
  5
102
330
101
100
AcDbEntity
  8
EBENE_1
 62
     7
100
AcDbVertex
100
AcDb2dVertex
 10
9.158786347536692
 20
95.41984318361033
 30
0.0
  0
VERTEX
  5
103
330
101
100
AcDbEntity
  8
EBENE_1
 62
     7
100
AcDbVertex
100
AcDb2dVertex
 10
6.230282930300069
 20
96.14227970686721
 30
0.0
  0
VERTEX
  5
104
330
101
100
AcDbEntity
  8
EBENE_1
 62
     7
100
AcDbVertex
100
AcDb2dVertex
 10
9.158786347536692
 20
96.8647162301241
 30
0.0
  0
VERTEX
  5
105
330
101
100
AcDbEntity
  8
EBENE_1
 62
     7
100
AcDbVertex
100
AcDb2dVertex
 10
9.158786347536692
 20
95.41984318361033
 30
0.0
  0
SEQEND
  5
106
330
101
100
AcDbEntity
  8
EBENE_1
  0
ENDBLK
  5
100
330
FD
100
AcDbEntity
  8
0
100
AcDbBlockEnd
  0
BLOCK
  5
109
330
107
100
AcDbEntity
  8
0
100
AcDbBlockBegin
  2
BLOCK_33
 70
     0
 71
     0
 10
0.0
 20
0.0
 30
0.0
  3
BLOCK_33
  1

  0
POLYLINE
  5
10B
330
107
100
AcDbEntity
  8
EBENE_1
 62
     7
100
AcDb2dPolyline
 66
     1
 10
0.0
 20
0.0
 30
0.0
  0
VERTEX
  5
10C
330
10B
100
AcDbEntity
  8
EBENE_1
 62
     7
100
AcDbVertex
100
AcDb2dVertex
 10
77.4913940235959
 20
96.8647162301241
 30
0.0
  0
VERTEX
  5
10D
330
10B
100
AcDbEntity
  8
EBENE_1
 62
     7
100
AcDbVertex
100
AcDb2dVertex
 10
80.41989744083253
 20
96.14227970686721
 30
0.0
  0
VERTEX
  5
10E
330
10B
100
AcDbEntity
  8
EBENE_1
 62
     7
100
AcDbVertex
100
AcDb2dVertex
 10
77.4913940235959
 20
95.41984318361033
 30
0.0
  0
VERTEX
  5
10F
330
10B
100
AcDbEntity
  8
EBENE_1
 62
     7
100
AcDbVertex
100
AcDb2dVertex
 10
77.4913940235959
 20
96.8647162301241
 30
0.0
  0
SEQEND
  5
110
330
10B
100
AcDbEntity
  8
EBENE_1
  0
ENDBLK
  5
10A
330
107
100
AcDbEntity
  8
0
100
AcDbBlockEnd
  0
BLOCK
  5
113
330
111
100
AcDbEntity
  8
0
100
AcDbBlockBegin
  2
BLOCK_34
 70
     0
 71
     0
 10
0.0
 20
0.0
 30
0.0
  3
BLOCK_34
  1

  0
POLYLINE
  5
115
330
111
100
AcDbEntity
  8
EBENE_1
 62
     7
100
AcDb2dPolyline
 66
     1
 10
0.0
 20
0.0
 30
0.0
  0
VERTEX
  5
116
330
115
100
AcDbEntity
  8
EBENE_1
 62
     7
100
AcDbVertex
100
AcDb2dVertex
 10
6.230282930300069
 20
117.5986788985517
 30
0.0
  0
VERTEX
  5
117
330
115
100
AcDbEntity
  8
EBENE_1
 62
     7
100
AcDbVertex
100
AcDb2dVertex
 10
6.230282930300069
 20
94.67811412563603
 30
0.0
  0
SEQEND
  5
118
330
115
100
AcDbEntity
  8
EBENE_1
  0
ENDBLK
  5
114
330
111
100
AcDbEntity
  8
0
100
AcDbBlockEnd
  0
BLOCK
  5
11B
330
119
100
AcDbEntity
  8
0
100
AcDbBlockBegin
  2
BLOCK_35
 70
     0
 71
     0
 10
0.0
 20
0.0
 30
0.0
  3
BLOCK_35
  1

  0
POLYLINE
  5
11D
330
119
100
AcDbEntity
  8
EBENE_1
 62
     7
100
AcDb2dPolyline
 66
     1
 10
0.0
 20
0.0
 30
0.0
  0
VERTEX
  5
11E
330
11D
100
AcDbEntity
  8
EBENE_1
 62
     7
100
AcDbVertex
100
AcDb2dVertex
 10
80.41989744083253
 20
117.5986788985517
 30
0.0
  0
VERTEX
  5
11F
330
11D
100
AcDbEntity
  8
EBENE_1
 62
     7
100
AcDbVertex
100
AcDb2dVertex
 10
80.41989744083253
 20
94.67811412563603
 30
0.0
  0
SEQEND
  5
120
330
11D
100
AcDbEntity
  8
EBENE_1
  0
ENDBLK
  5
11C
330
119
100
AcDbEntity
  8
0
100
AcDbBlockEnd
  0
BLOCK
  5
123
330
121
100
AcDbEntity
  8
0
100
AcDbBlockBegin
  2
BLOCK_36
 70
     0
 71
     0
 10
0.0
 20
0.0
 30
0.0
  3
BLOCK_36
  1

  0
MTEXT
  5
125
330
121
100
AcDbEntity
  8
EBENE_1
 62
     7
100
AcDbMText
 10
39.830471452716
 20
87.96190047714147
 30
0.0
 40
2.928541407488792
 41
0.0
 71
     7
 72
     1
  1
\fMyriad Pro|b0|i0|c0|p34;\W0.8;444
  0
ENDBLK
  5
124
330
121
100
AcDbEntity
  8
0
100
AcDbBlockEnd
  0
BLOCK
  5
128
330
126
100
AcDbEntity
  8
0
100
AcDbBlockBegin
  2
BLOCK_37
 70
     0
 71
     0
 10
0.0
 20
0.0
 30
0.0
  3
BLOCK_37
  1

  0
POLYLINE
  5
12A
330
126
100
AcDbEntity
  8
EBENE_1
 62
     7
100
AcDb2dPolyline
 66
     1
 10
0.0
 20
0.0
 30
0.0
  0
VERTEX
  5
12B
330
12A
100
AcDbEntity
  8
EBENE_1
 62
     7
100
AcDbVertex
100
AcDb2dVertex
 10
-0.0172254774262492
 20
86.4977348959103
 30
0.0
  0
VERTEX
  5
12C
330
12A
100
AcDbEntity
  8
EBENE_1
 62
     7
100
AcDbVertex
100
AcDb2dVertex
 10
86.66757810333311
 20
86.4977348959103
 30
0.0
  0
SEQEND
  5
12D
330
12A
100
AcDbEntity
  8
EBENE_1
  0
ENDBLK
  5
129
330
126
100
AcDbEntity
  8
0
100
AcDbBlockEnd
  0
BLOCK
  5
130
330
12E
100
AcDbEntity
  8
0
100
AcDbBlockBegin
  2
BLOCK_38
 70
     0
 71
     0
 10
0.0
 20
0.0
 30
0.0
  3
BLOCK_38
  1

  0
POLYLINE
  5
132
330
12E
100
AcDbEntity
  8
EBENE_1
 62
     7
100
AcDb2dPolyline
 66
     1
 10
0.0
 20
0.0
 30
0.0
  0
VERTEX
  5
133
330
132
100
AcDbEntity
  8
EBENE_1
 62
     7
100
AcDbVertex
100
AcDb2dVertex
 10
2.911277939810375
 20
85.7752983726534
 30
0.0
  0
VERTEX
  5
134
330
132
100
AcDbEntity
  8
EBENE_1
 62
     7
100
AcDbVertex
100
AcDb2dVertex
 10
-0.0172254774262492
 20
86.4977348959103
 30
0.0
  0
VERTEX
  5
135
330
132
100
AcDbEntity
  8
EBENE_1
 62
     7
100
AcDbVertex
100
AcDb2dVertex
 10
2.911277939810375
 20
87.21982690961866
 30
0.0
  0
VERTEX
  5
136
330
132
100
AcDbEntity
  8
EBENE_1
 62
     7
100
AcDbVertex
100
AcDb2dVertex
 10
2.911277939810375
 20
85.7752983726534
 30
0.0
  0
SEQEND
  5
137
330
132
100
AcDbEntity
  8
EBENE_1
  0
ENDBLK
  5
131
330
12E
100
AcDbEntity
  8
0
100
AcDbBlockEnd
  0
BLOCK
  5
13A
330
138
100
AcDbEntity
  8
0
100
AcDbBlockBegin
  2
BLOCK_39
 70
     0
 71
     0
 10
0.0
 20
0.0
 30
0.0
  3
BLOCK_39
  1

  0
POLYLINE
  5
13C
330
138
100
AcDbEntity
  8
EBENE_1
 62
     7
100
AcDb2dPolyline
 66
     1
 10
0.0
 20
0.0
 30
0.0
  0
VERTEX
  5
13D
330
13C
100
AcDbEntity
  8
EBENE_1
 62
     7
100
AcDbVertex
100
AcDb2dVertex
 10
83.73890243132222
 20
87.21982690961866
 30
0.0
  0
VERTEX
  5
13E
330
13C
100
AcDbEntity
  8
EBENE_1
 62
     7
100
AcDbVertex
100
AcDb2dVertex
 10
86.66757810333311
 20
86.4977348959103
 30
0.0
  0
VERTEX
  5
13F
330
13C
100
AcDbEntity
  8
EBENE_1
 62
     7
100
AcDbVertex
100
AcDb2dVertex
 10
83.73890243132222
 20
85.7752983726534
 30
0.0
  0
VERTEX
  5
140
330
13C
100
AcDbEntity
  8
EBENE_1
 62
     7
100
AcDbVertex
100
AcDb2dVertex
 10
83.73890243132222
 20
87.21982690961866
 30
0.0
  0
SEQEND
  5
141
330
13C
100
AcDbEntity
  8
EBENE_1
  0
ENDBLK
  5
13B
330
138
100
AcDbEntity
  8
0
100
AcDbBlockEnd
  0
BLOCK
  5
144
330
142
100
AcDbEntity
  8
0
100
AcDbBlockBegin
  2
BLOCK_40
 70
     0
 71
     0
 10
0.0
 20
0.0
 30
0.0
  3
BLOCK_40
  1

  0
POLYLINE
  5
146
330
142
100
AcDbEntity
  8
EBENE_1
 62
     7
100
AcDb2dPolyline
 66
     1
 10
0.0
 20
0.0
 30
0.0
  0
VERTEX
  5
147
330
146
100
AcDbEntity
  8
EBENE_1
 62
     7
100
AcDbVertex
100
AcDb2dVertex
 10
-0.0172254774262492
 20
117.5986788985517
 30
0.0
  0
VERTEX
  5
148
330
146
100
AcDbEntity
  8
EBENE_1
 62
     7
100
AcDbVertex
100
AcDb2dVertex
 10
-0.0172254774262492
 20
85.03322480513059
 30
0.0
  0
SEQEND
  5
149
330
146
100
AcDbEntity
  8
EBENE_1
  0
ENDBLK
  5
145
330
142
100
AcDbEntity
  8
0
100
AcDbBlockEnd
  0
BLOCK
  5
14C
330
14A
100
AcDbEntity
  8
0
100
AcDbBlockBegin
  2
BLOCK_41
 70
     0
 71
     0
 10
0.0
 20
0.0
 30
0.0
  3
BLOCK_41
  1

  0
POLYLINE
  5
14E
330
14A
100
AcDbEntity
  8
EBENE_1
 62
     7
100
AcDb2dPolyline
 66
     1
 10
0.0
 20
0.0
 30
0.0
  0
VERTEX
  5
14F
330
14E
100
AcDbEntity
  8
EBENE_1
 62
     7
100
AcDbVertex
100
AcDb2dVertex
 10
86.66757810333311
 20
117.5986788985517
 30
0.0
  0
VERTEX
  5
150
330
14E
100
AcDbEntity
  8
EBENE_1
 62
     7
100
AcDbVertex
100
AcDb2dVertex
 10
86.66757810333311
 20
85.03322480513059
 30
0.0
  0
SEQEND
  5
151
330
14E
100
AcDbEntity
  8
EBENE_1
  0
ENDBLK
  5
14D
330
14A
100
AcDbEntity
  8
0
100
AcDbBlockEnd
  0
BLOCK
  5
154
330
152
100
AcDbEntity
  8
0
100
AcDbBlockBegin
  2
BLOCK_42
 70
     0
 71
     0
 10
0.0
 20
0.0
 30
0.0
  3
BLOCK_42
  1

  0
MTEXT
  5
156
330
152
100
AcDbEntity
  8
EBENE_1
 62
     7
100
AcDbMText
 10
139.9084282419326
 20
163.1473198376854
 30
0.0
 40
2.928541407488792
 41
0.0
 71
     7
 72
     1
  1
\fMyriad Pro|b0|i0|c0|p34;\W0.8;46
 11
-4.371139000186241E-8
 21
0.999999999999999
 31
0.0
  0
ENDBLK
  5
155
330
152
100
AcDbEntity
  8
0
100
AcDbBlockEnd
  0
BLOCK
  5
159
330
157
100
AcDbEntity
  8
0
100
AcDbBlockBegin
  2
BLOCK_43
 70
     0
 71
     0
 10
0.0
 20
0.0
 30
0.0
  3
BLOCK_43
  1

  0
POLYLINE
  5
15B
330
157
100
AcDbEntity
  8
EBENE_1
 62
     7
100
AcDb2dPolyline
 66
     1
 10
0.0
 20
0.0
 30
0.0
  0
VERTEX
  5
15C
330
15B
100
AcDbEntity
  8
EBENE_1
 62
     7
100
AcDbVertex
100
AcDb2dVertex
 10
141.3725938231638
 20
169.4924967024185
 30
0.0
  0
VERTEX
  5
15D
330
15B
100
AcDbEntity
  8
EBENE_1
 62
     7
100
AcDbVertex
100
AcDb2dVertex
 10
141.3725938231638
 20
160.511649536695
 30
0.0
  0
SEQEND
  5
15E
330
15B
100
AcDbEntity
  8
EBENE_1
  0
ENDBLK
  5
15A
330
157
100
AcDbEntity
  8
0
100
AcDbBlockEnd
  0
BLOCK
  5
161
330
15F
100
AcDbEntity
  8
0
100
AcDbBlockBegin
  2
BLOCK_44
 70
     0
 71
     0
 10
0.0
 20
0.0
 30
0.0
  3
BLOCK_44
  1

  0
POLYLINE
  5
163
330
15F
100
AcDbEntity
  8
EBENE_1
 62
     7
100
AcDb2dPolyline
 66
     1
 10
0.0
 20
0.0
 30
0.0
  0
VERTEX
  5
164
330
163
100
AcDbEntity
  8
EBENE_1
 62
     7
100
AcDbVertex
100
AcDb2dVertex
 10
140.6308647651895
 20
166.5638210304077
 30
0.0
  0
VERTEX
  5
165
330
163
100
AcDbEntity
  8
EBENE_1
 62
     7
100
AcDbVertex
100
AcDb2dVertex
 10
141.3725938231638
 20
169.4924967024185
 30
0.0
  0
VERTEX
  5
166
330
163
100
AcDbEntity
  8
EBENE_1
 62
     7
100
AcDbVertex
100
AcDb2dVertex
 10
142.1146673906866
 20
166.5638210304077
 30
0.0
  0
VERTEX
  5
167
330
163
100
AcDbEntity
  8
EBENE_1
 62
     7
100
AcDbVertex
100
AcDb2dVertex
 10
140.6308647651895
 20
166.5638210304077
 30
0.0
  0
SEQEND
  5
168
330
163
100
AcDbEntity
  8
EBENE_1
  0
ENDBLK
  5
162
330
15F
100
AcDbEntity
  8
0
100
AcDbBlockEnd
  0
BLOCK
  5
16B
330
169
100
AcDbEntity
  8
0
100
AcDbBlockBegin
  2
BLOCK_45
 70
     0
 71
     0
 10
0.0
 20
0.0
 30
0.0
  3
BLOCK_45
  1

  0
POLYLINE
  5
16D
330
169
100
AcDbEntity
  8
EBENE_1
 62
     7
100
AcDb2dPolyline
 66
     1
 10
0.0
 20
0.0
 30
0.0
  0
VERTEX
  5
16E
330
16D
100
AcDbEntity
  8
EBENE_1
 62
     7
100
AcDbVertex
100
AcDb2dVertex
 10
142.1146673906866
 20
163.4401529539316
 30
0.0
  0
VERTEX
  5
16F
330
16D
100
AcDbEntity
  8
EBENE_1
 62
     7
100
AcDbVertex
100
AcDb2dVertex
 10
141.3725938231638
 20
160.511649536695
 30
0.0
  0
VERTEX
  5
170
330
16D
100
AcDbEntity
  8
EBENE_1
 62
     7
100
AcDbVertex
100
AcDb2dVertex
 10
140.6308647651895
 20
163.4401529539316
 30
0.0
  0
VERTEX
  5
171
330
16D
100
AcDbEntity
  8
EBENE_1
 62
     7
100
AcDbVertex
100
AcDb2dVertex
 10
142.1146673906866
 20
163.4401529539316
 30
0.0
  0
SEQEND
  5
172
330
16D
100
AcDbEntity
  8
EBENE_1
  0
ENDBLK
  5
16C
330
169
100
AcDbEntity
  8
0
100
AcDbBlockEnd
  0
BLOCK
  5
175
330
173
100
AcDbEntity
  8
0
100
AcDbBlockBegin
  2
BLOCK_46
 70
     0
 71
     0
 10
0.0
 20
0.0
 30
0.0
  3
BLOCK_46
  1

  0
POLYLINE
  5
177
330
173
100
AcDbEntity
  8
EBENE_1
 62
     7
100
AcDb2dPolyline
 66
     1
 10
0.0
 20
0.0
 30
0.0
  0
VERTEX
  5
178
330
177
100
AcDbEntity
  8
EBENE_1
 62
     7
100
AcDbVertex
100
AcDb2dVertex
 10
148.2255777624228
 20
169.4924967024185
 30
0.0
  0
VERTEX
  5
179
330
177
100
AcDbEntity
  8
EBENE_1
 62
     7
100
AcDbVertex
100
AcDb2dVertex
 10
139.9084282419326
 20
169.4924967024185
 30
0.0
  0
SEQEND
  5
17A
330
177
100
AcDbEntity
  8
EBENE_1
  0
ENDBLK
  5
176
330
173
100
AcDbEntity
  8
0
100
AcDbBlockEnd
  0
BLOCK
  5
17D
330
17B
100
AcDbEntity
  8
0
100
AcDbBlockBegin
  2
BLOCK_47
 70
     0
 71
     0
 10
0.0
 20
0.0
 30
0.0
  3
BLOCK_47
  1

  0
POLYLINE
  5
17F
330
17B
100
AcDbEntity
  8
EBENE_1
 62
     7
100
AcDb2dPolyline
 66
     1
 10
0.0
 20
0.0
 30
0.0
  0
VERTEX
  5
180
330
17F
100
AcDbEntity
  8
EBENE_1
 62
     7
100
AcDbVertex
100
AcDb2dVertex
 10
148.2255777624228
 20
160.511649536695
 30
0.0
  0
VERTEX
  5
181
330
17F
100
AcDbEntity
  8
EBENE_1
 62
     7
100
AcDbVertex
100
AcDb2dVertex
 10
139.9084282419326
 20
160.511649536695
 30
0.0
  0
SEQEND
  5
182
330
17F
100
AcDbEntity
  8
EBENE_1
  0
ENDBLK
  5
17E
330
17B
100
AcDbEntity
  8
0
100
AcDbBlockEnd
  0
BLOCK
  5
185
330
183
100
AcDbEntity
  8
0
100
AcDbBlockBegin
  2
BLOCK_48
 70
     0
 71
     0
 10
0.0
 20
0.0
 30
0.0
  3
BLOCK_48
  1

  0
MTEXT
  5
187
330
183
100
AcDbEntity
  8
EBENE_1
 62
     7
100
AcDbMText
 10
171.5368163633658
 20
90.14850258162954
 30
0.0
 40
2.928541407488792
 41
0.0
 71
     7
 72
     1
  1
\fMyriad Pro|b0|i0|c0|p34;\W0.8;210
  0
ENDBLK
  5
186
330
183
100
AcDbEntity
  8
0
100
AcDbBlockEnd
  0
BLOCK
  5
18A
330
188
100
AcDbEntity
  8
0
100
AcDbBlockBegin
  2
BLOCK_49
 70
     0
 71
     0
 10
0.0
 20
0.0
 30
0.0
  3
BLOCK_49
  1

  0
POLYLINE
  5
18C
330
188
100
AcDbEntity
  8
EBENE_1
 62
     7
100
AcDb2dPolyline
 66
     1
 10
0.0
 20
0.0
 30
0.0
  0
VERTEX
  5
18D
330
18C
100
AcDbEntity
  8
EBENE_1
 62
     7
100
AcDbVertex
100
AcDb2dVertex
 10
189.7131401435439
 20
88.68433700039836
 30
0.0
  0
VERTEX
  5
18E
330
18C
100
AcDbEntity
  8
EBENE_1
 62
     7
100
AcDbVertex
100
AcDb2dVertex
 10
148.7134032831342
 20
88.68433700039836
 30
0.0
  0
SEQEND
  5
18F
330
18C
100
AcDbEntity
  8
EBENE_1
  0
ENDBLK
  5
18B
330
188
100
AcDbEntity
  8
0
100
AcDbBlockEnd
  0
BLOCK
  5
192
330
190
100
AcDbEntity
  8
0
100
AcDbBlockBegin
  2
BLOCK_50
 70
     0
 71
     0
 10
0.0
 20
0.0
 30
0.0
  3
BLOCK_50
  1

  0
POLYLINE
  5
194
330
190
100
AcDbEntity
  8
EBENE_1
 62
     7
100
AcDb2dPolyline
 66
     1
 10
0.0
 20
0.0
 30
0.0
  0
VERTEX
  5
195
330
194
100
AcDbEntity
  8
EBENE_1
 62
     7
100
AcDbVertex
100
AcDb2dVertex
 10
186.7844644715331
 20
89.40677352365526
 30
0.0
  0
VERTEX
  5
196
330
194
100
AcDbEntity
  8
EBENE_1
 62
     7
100
AcDbVertex
100
AcDb2dVertex
 10
189.7131401435439
 20
88.68433700039836
 30
0.0
  0
VERTEX
  5
197
330
194
100
AcDbEntity
  8
EBENE_1
 62
     7
100
AcDbVertex
100
AcDb2dVertex
 10
186.7844644715331
 20
87.96190047714147
 30
0.0
  0
VERTEX
  5
198
330
194
100
AcDbEntity
  8
EBENE_1
 62
     7
100
AcDbVertex
100
AcDb2dVertex
 10
186.7844644715331
 20
89.40677352365526
 30
0.0
  0
SEQEND
  5
199
330
194
100
AcDbEntity
  8
EBENE_1
  0
ENDBLK
  5
193
330
190
100
AcDbEntity
  8
0
100
AcDbBlockEnd
  0
BLOCK
  5
19C
330
19A
100
AcDbEntity
  8
0
100
AcDbBlockBegin
  2
BLOCK_51
 70
     0
 71
     0
 10
0.0
 20
0.0
 30
0.0
  3
BLOCK_51
  1

  0
POLYLINE
  5
19E
330
19A
100
AcDbEntity
  8
EBENE_1
 62
     7
100
AcDb2dPolyline
 66
     1
 10
0.0
 20
0.0
 30
0.0
  0
VERTEX
  5
19F
330
19E
100
AcDbEntity
  8
EBENE_1
 62
     7
100
AcDbVertex
100
AcDb2dVertex
 10
151.6420789551451
 20
87.96190047714147
 30
0.0
  0
VERTEX
  5
1A0
330
19E
100
AcDbEntity
  8
EBENE_1
 62
     7
100
AcDbVertex
100
AcDb2dVertex
 10
148.7134032831342
 20
88.68433700039836
 30
0.0
  0
VERTEX
  5
1A1
330
19E
100
AcDbEntity
  8
EBENE_1
 62
     7
100
AcDbVertex
100
AcDb2dVertex
 10
151.6420789551451
 20
89.40677352365526
 30
0.0
  0
VERTEX
  5
1A2
330
19E
100
AcDbEntity
  8
EBENE_1
 62
     7
100
AcDbVertex
100
AcDb2dVertex
 10
151.6420789551451
 20
87.96190047714147
 30
0.0
  0
SEQEND
  5
1A3
330
19E
100
AcDbEntity
  8
EBENE_1
  0
ENDBLK
  5
19D
330
19A
100
AcDbEntity
  8
0
100
AcDbBlockEnd
  0
BLOCK
  5
1A6
330
1A4
100
AcDbEntity
  8
0
100
AcDbBlockBegin
  2
BLOCK_52
 70
     0
 71
     0
 10
0.0
 20
0.0
 30
0.0
  3
BLOCK_52
  1

  0
POLYLINE
  5
1A8
330
1A4
100
AcDbEntity
  8
EBENE_1
 62
     7
100
AcDb2dPolyline
 66
     1
 10
0.0
 20
0.0
 30
0.0
  0
VERTEX
  5
1A9
330
1A8
100
AcDbEntity
  8
EBENE_1
 62
     7
100
AcDbVertex
100
AcDb2dVertex
 10
189.7131401435439
 20
101.647886801845
 30
0.0
  0
VERTEX
  5
1AA
330
1A8
100
AcDbEntity
  8
EBENE_1
 62
     7
100
AcDbVertex
100
AcDb2dVertex
 10
189.7131401435439
 20
87.21982690961866
 30
0.0
  0
SEQEND
  5
1AB
330
1A8
100
AcDbEntity
  8
EBENE_1
  0
ENDBLK
  5
1A7
330
1A4
100
AcDbEntity
  8
0
100
AcDbBlockEnd
  0
BLOCK
  5
1AE
330
1AC
100
AcDbEntity
  8
0
100
AcDbBlockBegin
  2
BLOCK_53
 70
     0
 71
     0
 10
0.0
 20
0.0
 30
0.0
  3
BLOCK_53
  1

  0
POLYLINE
  5
1B0
330
1AC
100
AcDbEntity
  8
EBENE_1
 62
     7
100
AcDb2dPolyline
 66
     1
 10
0.0
 20
0.0
 30
0.0
  0
VERTEX
  5
1B1
330
1B0
100
AcDbEntity
  8
EBENE_1
 62
     7
100
AcDbVertex
100
AcDb2dVertex
 10
148.7134032831342
 20
153.0340697859602
 30
0.0
  0
VERTEX
  5
1B2
330
1B0
100
AcDbEntity
  8
EBENE_1
 62
     7
100
AcDbVertex
100
AcDb2dVertex
 10
148.7134032831342
 20
87.21982690961866
 30
0.0
  0
SEQEND
  5
1B3
330
1B0
100
AcDbEntity
  8
EBENE_1
  0
ENDBLK
  5
1AF
330
1AC
100
AcDbEntity
  8
0
100
AcDbBlockEnd
  0
BLOCK
  5
1B6
330
1B4
100
AcDbEntity
  8
0
100
AcDbBlockBegin
  2
BLOCK_54
 70
     0
 71
     0
 10
0.0
 20
0.0
 30
0.0
  3
BLOCK_54
  1

  0
MTEXT
  5
1B8
330
1B4
100
AcDbEntity
  8
EBENE_1
 62
     7
100
AcDbMText
 10
171.02900928884
 20
97.50894908586582
 30
0.0
 40
2.928541407488792
 41
0.0
 71
     7
 72
     1
  1
\fMyriad Pro|b0|i0|c0|p34;\W0.8;166
  0
ENDBLK
  5
1B7
330
1B4
100
AcDbEntity
  8
0
100
AcDbBlockEnd
  0
BLOCK
  5
1BB
330
1B9
100
AcDbEntity
  8
0
100
AcDbBlockBegin
  2
BLOCK_55
 70
     0
 71
     0
 10
0.0
 20
0.0
 30
0.0
  3
BLOCK_55
  1

  0
POLYLINE
  5
1BD
330
1B9
100
AcDbEntity
  8
EBENE_1
 62
     7
100
AcDb2dPolyline
 66
     1
 10
0.0
 20
0.0
 30
0.0
  0
VERTEX
  5
1BE
330
1BD
100
AcDbEntity
  8
EBENE_1
 62
     7
100
AcDbVertex
100
AcDb2dVertex
 10
189.7131401435439
 20
96.04478350463464
 30
0.0
  0
VERTEX
  5
1BF
330
1BD
100
AcDbEntity
  8
EBENE_1
 62
     7
100
AcDbVertex
100
AcDb2dVertex
 10
157.3040933851532
 20
96.04478350463464
 30
0.0
  0
SEQEND
  5
1C0
330
1BD
100
AcDbEntity
  8
EBENE_1
  0
ENDBLK
  5
1BC
330
1B9
100
AcDbEntity
  8
0
100
AcDbBlockEnd
  0
BLOCK
  5
1C3
330
1C1
100
AcDbEntity
  8
0
100
AcDbBlockBegin
  2
BLOCK_56
 70
     0
 71
     0
 10
0.0
 20
0.0
 30
0.0
  3
BLOCK_56
  1

  0
POLYLINE
  5
1C5
330
1C1
100
AcDbEntity
  8
EBENE_1
 62
     7
100
AcDb2dPolyline
 66
     1
 10
0.0
 20
0.0
 30
0.0
  0
VERTEX
  5
1C6
330
1C5
100
AcDbEntity
  8
EBENE_1
 62
     7
100
AcDbVertex
100
AcDb2dVertex
 10
186.7844644715331
 20
96.78651256260893
 30
0.0
  0
VERTEX
  5
1C7
330
1C5
100
AcDbEntity
  8
EBENE_1
 62
     7
100
AcDbVertex
100
AcDb2dVertex
 10
189.7131401435439
 20
96.04478350463464
 30
0.0
  0
VERTEX
  5
1C8
330
1C5
100
AcDbEntity
  8
EBENE_1
 62
     7
100
AcDbVertex
100
AcDb2dVertex
 10
186.7844644715331
 20
95.30270993711183
 30
0.0
  0
VERTEX
  5
1C9
330
1C5
100
AcDbEntity
  8
EBENE_1
 62
     7
100
AcDbVertex
100
AcDb2dVertex
 10
186.7844644715331
 20
96.78651256260893
 30
0.0
  0
SEQEND
  5
1CA
330
1C5
100
AcDbEntity
  8
EBENE_1
  0
ENDBLK
  5
1C4
330
1C1
100
AcDbEntity
  8
0
100
AcDbBlockEnd
  0
BLOCK
  5
1CD
330
1CB
100
AcDbEntity
  8
0
100
AcDbBlockBegin
  2
BLOCK_57
 70
     0
 71
     0
 10
0.0
 20
0.0
 30
0.0
  3
BLOCK_57
  1

  0
POLYLINE
  5
1CF
330
1CB
100
AcDbEntity
  8
EBENE_1
 62
     7
100
AcDb2dPolyline
 66
     1
 10
0.0
 20
0.0
 30
0.0
  0
VERTEX
  5
1D0
330
1CF
100
AcDbEntity
  8
EBENE_1
 62
     7
100
AcDbVertex
100
AcDb2dVertex
 10
160.2324245476155
 20
95.30270993711183
 30
0.0
  0
VERTEX
  5
1D1
330
1CF
100
AcDbEntity
  8
EBENE_1
 62
     7
100
AcDbVertex
100
AcDb2dVertex
 10
157.3040933851532
 20
96.04478350463464
 30
0.0
  0
VERTEX
  5
1D2
330
1CF
100
AcDbEntity
  8
EBENE_1
 62
     7
100
AcDbVertex
100
AcDb2dVertex
 10
160.2324245476155
 20
96.78651256260893
 30
0.0
  0
VERTEX
  5
1D3
330
1CF
100
AcDbEntity
  8
EBENE_1
 62
     7
100
AcDbVertex
100
AcDb2dVertex
 10
160.2324245476155
 20
95.30270993711183
 30
0.0
  0
SEQEND
  5
1D4
330
1CF
100
AcDbEntity
  8
EBENE_1
  0
ENDBLK
  5
1CE
330
1CB
100
AcDbEntity
  8
0
100
AcDbBlockEnd
  0
BLOCK
  5
1D7
330
1D5
100
AcDbEntity
  8
0
100
AcDbBlockBegin
  2
BLOCK_58
 70
     0
 71
     0
 10
0.0
 20
0.0
 30
0.0
  3
BLOCK_58
  1

  0
POLYLINE
  5
1D9
330
1D5
100
AcDbEntity
  8
EBENE_1
 62
     7
100
AcDb2dPolyline
 66
     1
 10
0.0
 20
0.0
 30
0.0
  0
VERTEX
  5
1DA
330
1D9
100
AcDbEntity
  8
EBENE_1
 62
     7
100
AcDbVertex
100
AcDb2dVertex
 10
189.7131401435439
 20
101.6868163808283
 30
0.0
  0
VERTEX
  5
1DB
330
1D9
100
AcDbEntity
  8
EBENE_1
 62
     7
100
AcDbVertex
100
AcDb2dVertex
 10
189.7131401435439
 20
94.58027341385494
 30
0.0
  0
SEQEND
  5
1DC
330
1D9
100
AcDbEntity
  8
EBENE_1
  0
ENDBLK
  5
1D8
330
1D5
100
AcDbEntity
  8
0
100
AcDbBlockEnd
  0
BLOCK
  5
1DF
330
1DD
100
AcDbEntity
  8
0
100
AcDbBlockBegin
  2
BLOCK_59
 70
     0
 71
     0
 10
0.0
 20
0.0
 30
0.0
  3
BLOCK_59
  1

  0
POLYLINE
  5
1E1
330
1DD
100
AcDbEntity
  8
EBENE_1
 62
     7
100
AcDb2dPolyline
 66
     1
 10
0.0
 20
0.0
 30
0.0
  0
VERTEX
  5
1E2
330
1E1
100
AcDbEntity
  8
EBENE_1
 62
     7
100
AcDbVertex
100
AcDb2dVertex
 10
157.3040933851532
 20
108.9108371038487
 30
0.0
  0
VERTEX
  5
1E3
330
1E1
100
AcDbEntity
  8
EBENE_1
 62
     7
100
AcDbVertex
100
AcDb2dVertex
 10
157.3040933851532
 20
94.58027341385494
 30
0.0
  0
SEQEND
  5
1E4
330
1E1
100
AcDbEntity
  8
EBENE_1
  0
ENDBLK
  5
1E0
330
1DD
100
AcDbEntity
  8
0
100
AcDbBlockEnd
  0
BLOCK
  5
1E7
330
1E5
100
AcDbEntity
  8
0
100
AcDbBlockBegin
  2
BLOCK_60
 70
     0
 71
     0
 10
0.0
 20
0.0
 30
0.0
  3
BLOCK_60
  1

  0
MTEXT
  5
1E9
330
1E5
100
AcDbEntity
  8
EBENE_1
 62
     7
100
AcDbMText
 10
198.4988226500281
 20
144.8731553457262
 30
0.0
 40
2.928541407488792
 41
0.0
 71
     7
 72
     1
  1
\fMyriad Pro|b0|i0|c0|p34;\W0.8;395
 11
-4.371139000186241E-8
 21
0.999999999999999
 31
0.0
  0
ENDBLK
  5
1E8
330
1E5
100
AcDbEntity
  8
0
100
AcDbBlockEnd
  0
BLOCK
  5
1EC
330
1EA
100
AcDbEntity
  8
0
100
AcDbBlockBegin
  2
BLOCK_61
 70
     0
 71
     0
 10
0.0
 20
0.0
 30
0.0
  3
BLOCK_61
  1

  0
POLYLINE
  5
1EE
330
1EA
100
AcDbEntity
  8
EBENE_1
 62
     7
100
AcDb2dPolyline
 66
     1
 10
0.0
 20
0.0
 30
0.0
  0
VERTEX
  5
1EF
330
1EE
100
AcDbEntity
  8
EBENE_1
 62
     7
100
AcDbVertex
100
AcDb2dVertex
 10
199.9629882312593
 20
110.3553656408139
 30
0.0
  0
VERTEX
  5
1F0
330
1EE
100
AcDbEntity
  8
EBENE_1
 62
     7
100
AcDbVertex
100
AcDb2dVertex
 10
199.9629882312593
 20
187.4736558233573
 30
0.0
  0
SEQEND
  5
1F1
330
1EE
100
AcDbEntity
  8
EBENE_1
  0
ENDBLK
  5
1ED
330
1EA
100
AcDbEntity
  8
0
100
AcDbBlockEnd
  0
BLOCK
  5
1F4
330
1F2
100
AcDbEntity
  8
0
100
AcDbBlockBegin
  2
BLOCK_62
 70
     0
 71
     0
 10
0.0
 20
0.0
 30
0.0
  3
BLOCK_62
  1

  0
POLYLINE
  5
1F6
330
1F2
100
AcDbEntity
  8
EBENE_1
 62
     7
100
AcDb2dPolyline
 66
     1
 10
0.0
 20
0.0
 30
0.0
  0
VERTEX
  5
1F7
330
1F6
100
AcDbEntity
  8
EBENE_1
 62
     7
100
AcDbVertex
100
AcDb2dVertex
 10
200.6854247545162
 20
113.2840413128248
 30
0.0
  0
VERTEX
  5
1F8
330
1F6
100
AcDbEntity
  8
EBENE_1
 62
     7
100
AcDbVertex
100
AcDb2dVertex
 10
199.9629882312593
 20
110.3553656408139
 30
0.0
  0
VERTEX
  5
1F9
330
1F6
100
AcDbEntity
  8
EBENE_1
 62
     7
100
AcDbVertex
100
AcDb2dVertex
 10
199.2405517080024
 20
113.2840413128248
 30
0.0
  0
VERTEX
  5
1FA
330
1F6
100
AcDbEntity
  8
EBENE_1
 62
     7
100
AcDbVertex
100
AcDb2dVertex
 10
200.6854247545162
 20
113.2840413128248
 30
0.0
  0
SEQEND
  5
1FB
330
1F6
100
AcDbEntity
  8
EBENE_1
  0
ENDBLK
  5
1F5
330
1F2
100
AcDbEntity
  8
0
100
AcDbBlockEnd
  0
BLOCK
  5
1FE
330
1FC
100
AcDbEntity
  8
0
100
AcDbBlockBegin
  2
BLOCK_63
 70
     0
 71
     0
 10
0.0
 20
0.0
 30
0.0
  3
BLOCK_63
  1

  0
POLYLINE
  5
200
330
1FC
100
AcDbEntity
  8
EBENE_1
 62
     7
100
AcDb2dPolyline
 66
     1
 10
0.0
 20
0.0
 30
0.0
  0
VERTEX
  5
201
330
200
100
AcDbEntity
  8
EBENE_1
 62
     7
100
AcDbVertex
100
AcDb2dVertex
 10
199.2405517080024
 20
184.5451524061207
 30
0.0
  0
VERTEX
  5
202
330
200
100
AcDbEntity
  8
EBENE_1
 62
     7
100
AcDbVertex
100
AcDb2dVertex
 10
199.9629882312593
 20
187.4736558233573
 30
0.0
  0
VERTEX
  5
203
330
200
100
AcDbEntity
  8
EBENE_1
 62
     7
100
AcDbVertex
100
AcDb2dVertex
 10
200.6854247545162
 20
184.5451524061207
 30
0.0
  0
VERTEX
  5
204
330
200
100
AcDbEntity
  8
EBENE_1
 62
     7
100
AcDbVertex
100
AcDb2dVertex
 10
199.2405517080024
 20
184.5451524061207
 30
0.0
  0
SEQEND
  5
205
330
200
100
AcDbEntity
  8
EBENE_1
  0
ENDBLK
  5
1FF
330
1FC
100
AcDbEntity
  8
0
100
AcDbBlockEnd
  0
BLOCK
  5
208
330
206
100
AcDbEntity
  8
0
100
AcDbBlockBegin
  2
BLOCK_64
 70
     0
 71
     0
 10
0.0
 20
0.0
 30
0.0
  3
BLOCK_64
  1

  0
POLYLINE
  5
20A
330
206
100
AcDbEntity
  8
EBENE_1
 62
     7
100
AcDb2dPolyline
 66
     1
 10
0.0
 20
0.0
 30
0.0
  0
VERTEX
  5
20B
330
20A
100
AcDbEntity
  8
EBENE_1
 62
     7
100
AcDbVertex
100
AcDb2dVertex
 10
195.3358804850202
 20
110.3553656408139
 30
0.0
  0
VERTEX
  5
20C
330
20A
100
AcDbEntity
  8
EBENE_1
 62
     7
100
AcDbVertex
100
AcDb2dVertex
 10
201.4271538124904
 20
110.3553656408139
 30
0.0
  0
SEQEND
  5
20D
330
20A
100
AcDbEntity
  8
EBENE_1
  0
ENDBLK
  5
209
330
206
100
AcDbEntity
  8
0
100
AcDbBlockEnd
  0
BLOCK
  5
210
330
20E
100
AcDbEntity
  8
0
100
AcDbBlockBegin
  2
BLOCK_65
 70
     0
 71
     0
 10
0.0
 20
0.0
 30
0.0
  3
BLOCK_65
  1

  0
POLYLINE
  5
212
330
20E
100
AcDbEntity
  8
EBENE_1
 62
     7
100
AcDb2dPolyline
 66
     1
 10
0.0
 20
0.0
 30
0.0
  0
VERTEX
  5
213
330
212
100
AcDbEntity
  8
EBENE_1
 62
     7
100
AcDbVertex
100
AcDb2dVertex
 10
195.3358804850202
 20
187.4736558233573
 30
0.0
  0
VERTEX
  5
214
330
212
100
AcDbEntity
  8
EBENE_1
 62
     7
100
AcDbVertex
100
AcDb2dVertex
 10
201.4271538124904
 20
187.4736558233573
 30
0.0
  0
SEQEND
  5
215
330
212
100
AcDbEntity
  8
EBENE_1
  0
ENDBLK
  5
211
330
20E
100
AcDbEntity
  8
0
100
AcDbBlockEnd
  0
BLOCK
  5
218
330
216
100
AcDbEntity
  8
0
100
AcDbBlockBegin
  2
BLOCK_66
 70
     0
 71
     0
 10
0.0
 20
0.0
 30
0.0
  3
BLOCK_66
  1

  0
MTEXT
  5
21A
330
216
100
AcDbEntity
  8
EBENE_1
 62
     7
100
AcDbMText
 10
206.991672040266
 20
144.9513590132413
 30
0.0
 40
2.928541407488792
 41
0.0
 71
     7
 72
     1
  1
\fMyriad Pro|b0|i0|c0|p34;\W0.8;464
 11
-4.371139000186241E-8
 21
0.999999999999999
 31
0.0
  0
ENDBLK
  5
219
330
216
100
AcDbEntity
  8
0
100
AcDbBlockEnd
  0
BLOCK
  5
21D
330
21B
100
AcDbEntity
  8
0
100
AcDbBlockBegin
  2
BLOCK_67
 70
     0
 71
     0
 10
0.0
 20
0.0
 30
0.0
  3
BLOCK_67
  1

  0
POLYLINE
  5
21F
330
21B
100
AcDbEntity
  8
EBENE_1
 62
     7
100
AcDb2dPolyline
 66
     1
 10
0.0
 20
0.0
 30
0.0
  0
VERTEX
  5
220
330
21F
100
AcDbEntity
  8
EBENE_1
 62
     7
100
AcDbVertex
100
AcDb2dVertex
 10
208.4558376214972
 20
104.1080294878619
 30
0.0
  0
VERTEX
  5
221
330
21F
100
AcDbEntity
  8
EBENE_1
 62
     7
100
AcDbVertex
100
AcDb2dVertex
 10
208.4558376214972
 20
194.6975042916034
 30
0.0
  0
SEQEND
  5
222
330
21F
100
AcDbEntity
  8
EBENE_1
  0
ENDBLK
  5
21E
330
21B
100
AcDbEntity
  8
0
100
AcDbBlockEnd
  0
BLOCK
  5
225
330
223
100
AcDbEntity
  8
0
100
AcDbBlockBegin
  2
BLOCK_68
 70
     0
 71
     0
 10
0.0
 20
0.0
 30
0.0
  3
BLOCK_68
  1

  0
POLYLINE
  5
227
330
223
100
AcDbEntity
  8
EBENE_1
 62
     7
100
AcDb2dPolyline
 66
     1
 10
0.0
 20
0.0
 30
0.0
  0
VERTEX
  5
228
330
227
100
AcDbEntity
  8
EBENE_1
 62
     7
100
AcDbVertex
100
AcDb2dVertex
 10
209.1975666794715
 20
107.0363606503243
 30
0.0
  0
VERTEX
  5
229
330
227
100
AcDbEntity
  8
EBENE_1
 62
     7
100
AcDbVertex
100
AcDb2dVertex
 10
208.4558376214972
 20
104.1080294878619
 30
0.0
  0
VERTEX
  5
22A
330
227
100
AcDbEntity
  8
EBENE_1
 62
     7
100
AcDbVertex
100
AcDb2dVertex
 10
207.7137640539744
 20
107.0363606503243
 30
0.0
  0
VERTEX
  5
22B
330
227
100
AcDbEntity
  8
EBENE_1
 62
     7
100
AcDbVertex
100
AcDb2dVertex
 10
209.1975666794715
 20
107.0363606503243
 30
0.0
  0
SEQEND
  5
22C
330
227
100
AcDbEntity
  8
EBENE_1
  0
ENDBLK
  5
226
330
223
100
AcDbEntity
  8
0
100
AcDbBlockEnd
  0
BLOCK
  5
22F
330
22D
100
AcDbEntity
  8
0
100
AcDbBlockBegin
  2
BLOCK_69
 70
     0
 71
     0
 10
0.0
 20
0.0
 30
0.0
  3
BLOCK_69
  1

  0
POLYLINE
  5
231
330
22D
100
AcDbEntity
  8
EBENE_1
 62
     7
100
AcDb2dPolyline
 66
     1
 10
0.0
 20
0.0
 30
0.0
  0
VERTEX
  5
232
330
231
100
AcDbEntity
  8
EBENE_1
 62
     7
100
AcDbVertex
100
AcDb2dVertex
 10
207.7137640539744
 20
191.7688286195925
 30
0.0
  0
VERTEX
  5
233
330
231
100
AcDbEntity
  8
EBENE_1
 62
     7
100
AcDbVertex
100
AcDb2dVertex
 10
208.4558376214972
 20
194.6975042916034
 30
0.0
  0
VERTEX
  5
234
330
231
100
AcDbEntity
  8
EBENE_1
 62
     7
100
AcDbVertex
100
AcDb2dVertex
 10
209.1975666794715
 20
191.7688286195925
 30
0.0
  0
VERTEX
  5
235
330
231
100
AcDbEntity
  8
EBENE_1
 62
     7
100
AcDbVertex
100
AcDb2dVertex
 10
207.7137640539744
 20
191.7688286195925
 30
0.0
  0
SEQEND
  5
236
330
231
100
AcDbEntity
  8
EBENE_1
  0
ENDBLK
  5
230
330
22D
100
AcDbEntity
  8
0
100
AcDbBlockEnd
  0
BLOCK
  5
239
330
237
100
AcDbEntity
  8
0
100
AcDbBlockBegin
  2
BLOCK_70
 70
     0
 71
     0
 10
0.0
 20
0.0
 30
0.0
  3
BLOCK_70
  1

  0
POLYLINE
  5
23B
330
237
100
AcDbEntity
  8
EBENE_1
 62
     7
100
AcDb2dPolyline
 66
     1
 10
0.0
 20
0.0
 30
0.0
  0
VERTEX
  5
23C
330
23B
100
AcDbEntity
  8
EBENE_1
 62
     7
100
AcDbVertex
100
AcDb2dVertex
 10
195.3358804850202
 20
104.1080294878619
 30
0.0
  0
VERTEX
  5
23D
330
23B
100
AcDbEntity
  8
EBENE_1
 62
     7
100
AcDbVertex
100
AcDb2dVertex
 10
209.9200032027283
 20
104.1080294878619
 30
0.0
  0
SEQEND
  5
23E
330
23B
100
AcDbEntity
  8
EBENE_1
  0
ENDBLK
  5
23A
330
237
100
AcDbEntity
  8
0
100
AcDbBlockEnd
  0
BLOCK
  5
241
330
23F
100
AcDbEntity
  8
0
100
AcDbBlockBegin
  2
BLOCK_71
 70
     0
 71
     0
 10
0.0
 20
0.0
 30
0.0
  3
BLOCK_71
  1

  0
POLYLINE
  5
243
330
23F
100
AcDbEntity
  8
EBENE_1
 62
     7
100
AcDb2dPolyline
 66
     1
 10
0.0
 20
0.0
 30
0.0
  0
VERTEX
  5
244
330
243
100
AcDbEntity
  8
EBENE_1
 62
     7
100
AcDbVertex
100
AcDb2dVertex
 10
195.3358804850202
 20
194.6975042916034
 30
0.0
  0
VERTEX
  5
245
330
243
100
AcDbEntity
  8
EBENE_1
 62
     7
100
AcDbVertex
100
AcDb2dVertex
 10
209.9200032027283
 20
194.6975042916034
 30
0.0
  0
SEQEND
  5
246
330
243
100
AcDbEntity
  8
EBENE_1
  0
ENDBLK
  5
242
330
23F
100
AcDbEntity
  8
0
100
AcDbBlockEnd
  0
BLOCK
  5
249
330
247
100
AcDbEntity
  8
0
100
AcDbBlockBegin
  2
BLOCK_72
 70
     0
 71
     0
 10
0.0
 20
0.0
 30
0.0
  3
BLOCK_72
  1

  0
MTEXT
  5
24B
330
247
100
AcDbEntity
  8
EBENE_1
 62
     7
100
AcDbMText
 10
41.48997394796084
 20
200.2031113865812
 30
0.0
 40
2.928541407488792
 41
0.0
 71
     7
 72
     1
  1
\fMyriad Pro|b0|i0|c0|p34;\W0.8;50
  0
ENDBLK
  5
24A
330
247
100
AcDbEntity
  8
0
100
AcDbBlockEnd
  0
BLOCK
  5
24E
330
24C
100
AcDbEntity
  8
0
100
AcDbBlockBegin
  2
BLOCK_73
 70
     0
 71
     0
 10
0.0
 20
0.0
 30
0.0
  3
BLOCK_73
  1

  0
POLYLINE
  5
250
330
24C
100
AcDbEntity
  8
EBENE_1
 62
     7
100
AcDb2dPolyline
 66
     1
 10
0.0
 20
0.0
 30
0.0
  0
VERTEX
  5
251
330
250
100
AcDbEntity
  8
EBENE_1
 62
     7
100
AcDbVertex
100
AcDb2dVertex
 10
38.44416502945146
 20
198.7387735505757
 30
0.0
  0
VERTEX
  5
252
330
250
100
AcDbEntity
  8
EBENE_1
 62
     7
100
AcDbVertex
100
AcDb2dVertex
 10
48.20601534168114
 20
198.7387735505757
 30
0.0
  0
SEQEND
  5
253
330
250
100
AcDbEntity
  8
EBENE_1
  0
ENDBLK
  5
24F
330
24C
100
AcDbEntity
  8
0
100
AcDbBlockEnd
  0
BLOCK
  5
256
330
254
100
AcDbEntity
  8
0
100
AcDbBlockBegin
  2
BLOCK_74
 70
     0
 71
     0
 10
0.0
 20
0.0
 30
0.0
  3
BLOCK_74
  1

  0
POLYLINE
  5
258
330
254
100
AcDbEntity
  8
EBENE_1
 62
     7
100
AcDb2dPolyline
 66
     1
 10
0.0
 20
0.0
 30
0.0
  0
VERTEX
  5
259
330
258
100
AcDbEntity
  8
EBENE_1
 62
     7
100
AcDbVertex
100
AcDb2dVertex
 10
41.37284070146234
 20
197.9968722378272
 30
0.0
  0
VERTEX
  5
25A
330
258
100
AcDbEntity
  8
EBENE_1
 62
     7
100
AcDbVertex
100
AcDb2dVertex
 10
38.44416502945146
 20
198.7387735505757
 30
0.0
  0
VERTEX
  5
25B
330
258
100
AcDbEntity
  8
EBENE_1
 62
     7
100
AcDbVertex
100
AcDb2dVertex
 10
41.37284070146234
 20
199.4806748633243
 30
0.0
  0
VERTEX
  5
25C
330
258
100
AcDbEntity
  8
EBENE_1
 62
     7
100
AcDbVertex
100
AcDb2dVertex
 10
41.37284070146234
 20
197.9968722378272
 30
0.0
  0
SEQEND
  5
25D
330
258
100
AcDbEntity
  8
EBENE_1
  0
ENDBLK
  5
257
330
254
100
AcDbEntity
  8
0
100
AcDbBlockEnd
  0
BLOCK
  5
260
330
25E
100
AcDbEntity
  8
0
100
AcDbBlockBegin
  2
BLOCK_75
 70
     0
 71
     0
 10
0.0
 20
0.0
 30
0.0
  3
BLOCK_75
  1

  0
POLYLINE
  5
262
330
25E
100
AcDbEntity
  8
EBENE_1
 62
     7
100
AcDb2dPolyline
 66
     1
 10
0.0
 20
0.0
 30
0.0
  0
VERTEX
  5
263
330
262
100
AcDbEntity
  8
EBENE_1
 62
     7
100
AcDbVertex
100
AcDb2dVertex
 10
45.27751192444451
 20
199.4806748633243
 30
0.0
  0
VERTEX
  5
264
330
262
100
AcDbEntity
  8
EBENE_1
 62
     7
100
AcDbVertex
100
AcDb2dVertex
 10
48.20601534168114
 20
198.7387735505757
 30
0.0
  0
VERTEX
  5
265
330
262
100
AcDbEntity
  8
EBENE_1
 62
     7
100
AcDbVertex
100
AcDb2dVertex
 10
45.27751192444451
 20
197.9968722378272
 30
0.0
  0
VERTEX
  5
266
330
262
100
AcDbEntity
  8
EBENE_1
 62
     7
100
AcDbVertex
100
AcDb2dVertex
 10
45.27751192444451
 20
199.4806748633243
 30
0.0
  0
SEQEND
  5
267
330
262
100
AcDbEntity
  8
EBENE_1
  0
ENDBLK
  5
261
330
25E
100
AcDbEntity
  8
0
100
AcDbBlockEnd
  0
BLOCK
  5
26A
330
268
100
AcDbEntity
  8
0
100
AcDbBlockBegin
  2
BLOCK_76
 70
     0
 71
     0
 10
0.0
 20
0.0
 30
0.0
  3
BLOCK_76
  1

  0
POLYLINE
  5
26C
330
268
100
AcDbEntity
  8
EBENE_1
 62
     7
100
AcDb2dPolyline
 66
     1
 10
0.0
 20
0.0
 30
0.0
  0
VERTEX
  5
26D
330
26C
100
AcDbEntity
  8
EBENE_1
 62
     7
100
AcDbVertex
100
AcDb2dVertex
 10
38.44416502945146
 20
194.092201014845
 30
0.0
  0
VERTEX
  5
26E
330
26C
100
AcDbEntity
  8
EBENE_1
 62
     7
100
AcDbVertex
100
AcDb2dVertex
 10
38.44416502945146
 20
200.2031113865812
 30
0.0
  0
SEQEND
  5
26F
330
26C
100
AcDbEntity
  8
EBENE_1
  0
ENDBLK
  5
26B
330
268
100
AcDbEntity
  8
0
100
AcDbBlockEnd
  0
BLOCK
  5
272
330
270
100
AcDbEntity
  8
0
100
AcDbBlockBegin
  2
BLOCK_77
 70
     0
 71
     0
 10
0.0
 20
0.0
 30
0.0
  3
BLOCK_77
  1

  0
POLYLINE
  5
274
330
270
100
AcDbEntity
  8
EBENE_1
 62
     7
100
AcDb2dPolyline
 66
     1
 10
0.0
 20
0.0
 30
0.0
  0
VERTEX
  5
275
330
274
100
AcDbEntity
  8
EBENE_1
 62
     7
100
AcDbVertex
100
AcDb2dVertex
 10
48.20601534168114
 20
194.092201014845
 30
0.0
  0
VERTEX
  5
276
330
274
100
AcDbEntity
  8
EBENE_1
 62
     7
100
AcDbVertex
100
AcDb2dVertex
 10
48.20601534168114
 20
200.2031113865812
 30
0.0
  0
SEQEND
  5
277
330
274
100
AcDbEntity
  8
EBENE_1
  0
ENDBLK
  5
273
330
270
100
AcDbEntity
  8
0
100
AcDbBlockEnd
  0
BLOCK
  5
27A
330
278
100
AcDbEntity
  8
0
100
AcDbBlockBegin
  2
BLOCK_78
 70
     0
 71
     0
 10
0.0
 20
0.0
 30
0.0
  3
BLOCK_78
  1

  0
MTEXT
  5
27C
330
278
100
AcDbEntity
  8
EBENE_1
 62
     7
100
AcDbMText
 10
132.1380153749516
 20
134.3304741417646
 30
0.0
 40
2.928541407488792
 41
0.0
 71
     7
 72
     1
  1
\fMyriad Pro|b0|i0|c0|p34;\W0.8;312
 11
-4.371139000186241E-8
 21
0.999999999999999
 31
0.0
  0
ENDBLK
  5
27B
330
278
100
AcDbEntity
  8
0
100
AcDbBlockEnd
  0
BLOCK
  5
27F
330
27D
100
AcDbEntity
  8
0
100
AcDbBlockBegin
  2
BLOCK_79
 70
     0
 71
     0
 10
0.0
 20
0.0
 30
0.0
  3
BLOCK_79
  1

  0
POLYLINE
  5
281
330
27D
100
AcDbEntity
  8
EBENE_1
 62
     7
100
AcDb2dPolyline
 66
     1
 10
0.0
 20
0.0
 30
0.0
  0
VERTEX
  5
282
330
281
100
AcDbEntity
  8
EBENE_1
 62
     7
100
AcDbVertex
100
AcDb2dVertex
 10
133.6021809561828
 20
165.0214517816613
 30
0.0
  0
VERTEX
  5
283
330
281
100
AcDbEntity
  8
EBENE_1
 62
     7
100
AcDbVertex
100
AcDb2dVertex
 10
133.6021809561828
 20
104.1080294878619
 30
0.0
  0
SEQEND
  5
284
330
281
100
AcDbEntity
  8
EBENE_1
  0
ENDBLK
  5
280
330
27D
100
AcDbEntity
  8
0
100
AcDbBlockEnd
  0
BLOCK
  5
287
330
285
100
AcDbEntity
  8
0
100
AcDbBlockBegin
  2
BLOCK_80
 70
     0
 71
     0
 10
0.0
 20
0.0
 30
0.0
  3
BLOCK_80
  1

  0
POLYLINE
  5
289
330
285
100
AcDbEntity
  8
EBENE_1
 62
     7
100
AcDb2dPolyline
 66
     1
 10
0.0
 20
0.0
 30
0.0
  0
VERTEX
  5
28A
330
289
100
AcDbEntity
  8
EBENE_1
 62
     7
100
AcDbVertex
100
AcDb2dVertex
 10
132.8604518982085
 20
162.0929483644247
 30
0.0
  0
VERTEX
  5
28B
330
289
100
AcDbEntity
  8
EBENE_1
 62
     7
100
AcDbVertex
100
AcDb2dVertex
 10
133.6021809561828
 20
165.0214517816613
 30
0.0
  0
VERTEX
  5
28C
330
289
100
AcDbEntity
  8
EBENE_1
 62
     7
100
AcDbVertex
100
AcDb2dVertex
 10
134.3442545237056
 20
162.0929483644247
 30
0.0
  0
VERTEX
  5
28D
330
289
100
AcDbEntity
  8
EBENE_1
 62
     7
100
AcDbVertex
100
AcDb2dVertex
 10
132.8604518982085
 20
162.0929483644247
 30
0.0
  0
SEQEND
  5
28E
330
289
100
AcDbEntity
  8
EBENE_1
  0
ENDBLK
  5
288
330
285
100
AcDbEntity
  8
0
100
AcDbBlockEnd
  0
BLOCK
  5
291
330
28F
100
AcDbEntity
  8
0
100
AcDbBlockBegin
  2
BLOCK_81
 70
     0
 71
     0
 10
0.0
 20
0.0
 30
0.0
  3
BLOCK_81
  1

  0
POLYLINE
  5
293
330
28F
100
AcDbEntity
  8
EBENE_1
 62
     7
100
AcDb2dPolyline
 66
     1
 10
0.0
 20
0.0
 30
0.0
  0
VERTEX
  5
294
330
293
100
AcDbEntity
  8
EBENE_1
 62
     7
100
AcDbVertex
100
AcDb2dVertex
 10
134.3442545237056
 20
107.0363606503243
 30
0.0
  0
VERTEX
  5
295
330
293
100
AcDbEntity
  8
EBENE_1
 62
     7
100
AcDbVertex
100
AcDb2dVertex
 10
133.6021809561828
 20
104.1080294878619
 30
0.0
  0
VERTEX
  5
296
330
293
100
AcDbEntity
  8
EBENE_1
 62
     7
100
AcDbVertex
100
AcDb2dVertex
 10
132.8604518982085
 20
107.0363606503243
 30
0.0
  0
VERTEX
  5
297
330
293
100
AcDbEntity
  8
EBENE_1
 62
     7
100
AcDbVertex
100
AcDb2dVertex
 10
134.3442545237056
 20
107.0363606503243
 30
0.0
  0
SEQEND
  5
298
330
293
100
AcDbEntity
  8
EBENE_1
  0
ENDBLK
  5
292
330
28F
100
AcDbEntity
  8
0
100
AcDbBlockEnd
  0
BLOCK
  5
29B
330
299
100
AcDbEntity
  8
0
100
AcDbBlockBegin
  2
BLOCK_82
 70
     0
 71
     0
 10
0.0
 20
0.0
 30
0.0
  3
BLOCK_82
  1

  0
POLYLINE
  5
29D
330
299
100
AcDbEntity
  8
EBENE_1
 62
     7
100
AcDb2dPolyline
 66
     1
 10
0.0
 20
0.0
 30
0.0
  0
VERTEX
  5
29E
330
29D
100
AcDbEntity
  8
EBENE_1
 62
     7
100
AcDbVertex
100
AcDb2dVertex
 10
133.446118130701
 20
165.0214517816613
 30
0.0
  0
VERTEX
  5
29F
330
29D
100
AcDbEntity
  8
EBENE_1
 62
     7
100
AcDbVertex
100
AcDb2dVertex
 10
132.1380153749516
 20
165.0214517816613
 30
0.0
  0
SEQEND
  5
2A0
330
29D
100
AcDbEntity
  8
EBENE_1
  0
ENDBLK
  5
29C
330
299
100
AcDbEntity
  8
0
100
AcDbBlockEnd
  0
BLOCK
  5
2A3
330
2A1
100
AcDbEntity
  8
0
100
AcDbBlockBegin
  2
BLOCK_83
 70
     0
 71
     0
 10
0.0
 20
0.0
 30
0.0
  3
BLOCK_83
  1

  0
POLYLINE
  5
2A5
330
2A1
100
AcDbEntity
  8
EBENE_1
 62
     7
100
AcDb2dPolyline
 66
     1
 10
0.0
 20
0.0
 30
0.0
  0
VERTEX
  5
2A6
330
2A5
100
AcDbEntity
  8
EBENE_1
 62
     7
100
AcDbVertex
100
AcDb2dVertex
 10
146.8589083834242
 20
104.1080294878619
 30
0.0
  0
VERTEX
  5
2A7
330
2A5
100
AcDbEntity
  8
EBENE_1
 62
     7
100
AcDbVertex
100
AcDb2dVertex
 10
132.1380153749516
 20
104.1080294878619
 30
0.0
  0
SEQEND
  5
2A8
330
2A5
100
AcDbEntity
  8
EBENE_1
  0
ENDBLK
  5
2A4
330
2A1
100
AcDbEntity
  8
0
100
AcDbBlockEnd
  0
BLOCK
  5
2AB
330
2A9
100
AcDbEntity
  8
0
100
AcDbBlockBegin
  2
BLOCK_84
 70
     0
 71
     0
 10
0.0
 20
0.0
 30
0.0
  3
BLOCK_84
  1

  0
SPLINE
  5
2AD
330
2A9
100
AcDbEntity
  8
EBENE_1
100
AcDbSpline
210
0.0
220
0.0
230
1.0
 70
    11
 71
     3
 72
    44
 73
    40
 74
     0
 42
0.0000000001
 43
0.0000000001
 40
0.0
 40
0.0
 40
0.0
 40
0.0
 40
1.0
 40
1.0
 40
1.0
 40
2.0
 40
2.0
 40
2.0
 40
3.0
 40
3.0
 40
3.0
 40
4.0
 40
4.0
 40
4.0
 40
5.0
 40
5.0
 40
5.0
 40
6.0
 40
6.0
 40
6.0
 40
7.0
 40
7.0
 40
7.0
 40
8.0
 40
8.0
 40
8.0
 40
9.0
 40
9.0
 40
9.0
 40
10.0
 40
10.0
 40
10.0
 40
11.0
 40
11.0
 40
11.0
 40
12.0
 40
12.0
 40
12.0
 40
13.0
 40
13.0
 40
13.0
 40
13.0
 10
189.6807562459826
 20
194.6267075793815
 30
0.0
 10
188.727498325214
 20
194.6267075793815
 30
0.0
 10
188.727498325214
 20
188.1442436595612
 30
0.0
 10
188.727498325214
 20
188.1442436595612
 30
0.0
 10
188.2506971100554
 20
187.5721855542354
 30
0.0
 10
158.7937526729752
 20
185.0936116073725
 30
0.0
 10
158.7937526729752
 20
185.0936116073725
 30
0.0
 10
156.3153509808864
 20
184.9029255722639
 30
0.0
 10
154.4084906298007
 20
182.805723695618
 30
0.0
 10
154.4084906298007
 20
180.1364637136464
 30
0.0
 10
154.4084906298007
 20
180.1364637136464
 30
0.0
 10
154.4084906298007
 20
170.9847398118545
 30
0.0
 10
154.4084906298007
 20
170.9847398118545
 30
0.0
 10
153.9320339241906
 20
170.4128539613031
 30
0.0
 10
148.6889431051889
 20
170.4128539613031
 30
0.0
 10
148.6889431051889
 20
170.4128539613031
 30
0.0
 10
148.6889431051889
 20
169.4594237857602
 30
0.0
 10
154.4084906298007
 20
169.4594237857602
 30
0.0
 10
154.4084906298007
 20
169.4594237857602
 30
0.0
 10
154.8852918449592
 20
169.4594237857602
 30
0.0
 10
155.3620930601178
 20
169.8407958559773
 30
0.0
 10
155.3620930601178
 20
170.4128539613031
 30
0.0
 10
155.3620930601178
 20
170.4128539613031
 30
0.0
 10
155.3620930601178
 20
180.1364637136464
 30
0.0
 10
155.3620930601178
 20
180.1364637136464
 30
0.0
 10
155.3620930601178
 20
182.2336655902923
 30
0.0
 10
156.8872368314379
 20
183.7589816163866
 30
0.0
 10
158.8891818179166
 20
183.9496676514952
 30
0.0
 10
158.8891818179166
 20
183.9496676514952
 30
0.0
 10
188.1556124746625
 20
186.6189276334668
 30
0.0
 10
188.1556124746625
 20
186.6189276334668
 30
0.0
 10
188.727498325214
 20
186.0468695281411
 30
0.0
 10
188.727498325214
 20
184.521725756821
 30
0.0
 10
188.727498325214
 20
184.521725756821
 30
0.0
 10
189.6807562459826
 20
184.9029255722639
 30
0.0
 10
189.6807562459826
 20
194.6267075793815
 30
0.0
 10
189.6807562459826
 20
194.6267075793815
 30
0.0
 10
189.6807562459826
 20
194.6267075793815
 30
0.0
 10
189.6807562459826
 20
194.6267075793815
 30
0.0
 10
189.6807562459826
 20
194.6267075793815
 30
0.0
  0
INSERT
  5
2AE
330
2A9
100
AcDbEntity
  8
EBENE_1
 62
     7
100
AcDbBlockReference
  2
*U94
 10
0.0
 20
0.0
 30
0.0
1001
ACAD
1002
{
1000
R14_HATCH_DATA
1000
2AE
1011
1.0
1021
0.0
1031
0.0
1011
0.0
1021
1.0
1031
0.0
1011
0.0
1021
0.0
1031
1.0
1040
0.0
1010
0.0
1020
0.0
1030
1.0
1000
SOLID
1070
     1
1070
     1
1071
        1
1071
        1
1071
        1
1070
     4
1070
     3
1070
     0
1070
     1
1071
       44
1071
       40
1040
0.0
1040
0.0
1040
0.0
1040
0.0
1040
1.0
1040
1.0
1040
1.0
1040
2.0
1040
2.0
1040
2.0
1040
3.0
1040
3.0
1040
3.0
1040
4.0
1040
4.0
1040
4.0
1040
5.0
1040
5.0
1040
5.0
1040
6.0
1040
6.0
1040
6.0
1040
7.0
1040
7.0
1040
7.0
1040
8.0
1040
8.0
1040
8.0
1040
9.0
1040
9.0
1040
9.0
1040
10.0
1040
10.0
1040
10.0
1040
11.0
1040
11.0
1040
11.0
1040
12.0
1040
12.0
1040
12.0
1040
13.0
1040
13.0
1040
13.0
1040
13.0
1040
189.6807562459826
1040
194.6267075793815
1040
188.727498325214
1040
194.6267075793815
1040
188.727498325214
1040
188.1442436595612
1040
188.727498325214
1040
188.1442436595612
1040
188.2506971100554
1040
187.5721855542354
1040
158.7937526729752
1040
185.0936116073725
1040
158.7937526729752
1040
185.0936116073725
1040
156.3153509808864
1040
184.9029255722639
1040
154.4084906298007
1040
182.805723695618
1040
154.4084906298007
1040
180.1364637136464
1040
154.4084906298007
1040
180.1364637136464
1040
154.4084906298007
1040
170.9847398118545
1040
154.4084906298007
1040
170.9847398118545
1040
153.9320339241906
1040
170.4128539613031
1040
148.6889431051889
1040
170.4128539613031
1040
148.6889431051889
1040
170.4128539613031
1040
148.6889431051889
1040
169.4594237857602
1040
154.4084906298007
1040
169.4594237857602
1040
154.4084906298007
1040
169.4594237857602
1040
154.8852918449592
1040
169.4594237857602
1040
155.3620930601178
1040
169.8407958559773
1040
155.3620930601178
1040
170.4128539613031
1040
155.3620930601178
1040
170.4128539613031
1040
155.3620930601178
1040
180.1364637136464
1040
155.3620930601178
1040
180.1364637136464
1040
155.3620930601178
1040
182.2336655902923
1040
156.8872368314379
1040
183.7589816163866
1040
158.8891818179166
1040
183.9496676514952
1040
158.8891818179166
1040
183.9496676514952
1040
188.1556124746625
1040
186.6189276334668
1040
188.1556124746625
1040
186.6189276334668
1040
188.727498325214
1040
186.0468695281411
1040
188.727498325214
1040
184.521725756821
1040
188.727498325214
1040
184.521725756821
1040
189.6807562459826
1040
184.9029255722639
1040
189.6807562459826
1040
194.6267075793815
1040
189.6807562459826
1040
194.6267075793815
1040
189.6807562459826
1040
194.6267075793815
1040
189.6807562459826
1040
194.6267075793815
1040
189.6807562459826
1040
194.6267075793815
1071
        0
1070
     0
1070
     1
1071
        0
1002
}
  0
ENDBLK
  5
2AC
330
2A9
100
AcDbEntity
  8
0
100
AcDbBlockEnd
  0
BLOCK
  5
2B1
330
2AF
100
AcDbEntity
  8
0
100
AcDbBlockBegin
  2
BLOCK_85
 70
     0
 71
     0
 10
0.0
 20
0.0
 30
0.0
  3
BLOCK_85
  1

  0
SPLINE
  5
2B3
330
2AF
100
AcDbEntity
  8
EBENE_1
100
AcDbSpline
210
0.0
220
0.0
230
1.0
 70
    11
 71
     3
 72
    29
 73
    25
 74
     0
 42
0.0000000001
 43
0.0000000001
 40
0.0
 40
0.0
 40
0.0
 40
0.0
 40
1.0
 40
1.0
 40
1.0
 40
2.0
 40
2.0
 40
2.0
 40
3.0
 40
3.0
 40
3.0
 40
4.0
 40
4.0
 40
4.0
 40
5.0
 40
5.0
 40
5.0
 40
6.0
 40
6.0
 40
6.0
 40
7.0
 40
7.0
 40
7.0
 40
8.0
 40
8.0
 40
8.0
 40
8.0
 10
156.3153509808864
 20
169.4594237857602
 30
0.0
 10
157.2686089016551
 20
169.4594237857602
 30
0.0
 10
157.2686089016551
 20
180.1364637136464
 30
0.0
 10
157.2686089016551
 20
180.1364637136464
 30
0.0
 10
157.2686089016551
 20
181.0897216344151
 30
0.0
 10
158.1264376774823
 20
182.0429795551837
 30
0.0
 10
159.0796955982509
 20
182.0429795551837
 30
0.0
 10
159.0796955982509
 20
182.0429795551837
 30
0.0
 10
185.7722954179667
 20
184.3310397217124
 30
0.0
 10
185.7722954179667
 20
184.3310397217124
 30
0.0
 10
185.7722954179667
 20
184.3310397217124
 30
0.0
 10
185.7722954179667
 20
185.4749836775896
 30
0.0
 10
185.7722954179667
 20
185.4749836775896
 30
0.0
 10
185.7722954179667
 20
185.4749836775896
 30
0.0
 10
158.984610962858
 20
183.1870957658352
 30
0.0
 10
158.984610962858
 20
183.1870957658352
 30
0.0
 10
157.4591226819894
 20
182.9964097307266
 30
0.0
 10
156.3153509808864
 20
181.6617797397408
 30
0.0
 10
156.3153509808864
 20
180.1364637136464
 30
0.0
 10
156.3153509808864
 20
180.1364637136464
 30
0.0
 10
156.3153509808864
 20
169.4594237857602
 30
0.0
 10
156.3153509808864
 20
169.4594237857602
 30
0.0
 10
156.3153509808864
 20
169.4594237857602
 30
0.0
 10
156.3153509808864
 20
169.4594237857602
 30
0.0
 10
156.3153509808864
 20
169.4594237857602
 30
0.0
  0
INSERT
  5
2B4
330
2AF
100
AcDbEntity
  8
EBENE_1
 62
     7
100
AcDbBlockReference
  2
*U95
 10
0.0
 20
0.0
 30
0.0
1001
ACAD
1002
{
1000
R14_HATCH_DATA
1000
2B4
1011
1.0
1021
0.0
1031
0.0
1011
0.0
1021
1.0
1031
0.0
1011
0.0
1021
0.0
1031
1.0
1040
0.0
1010
0.0
1020
0.0
1030
1.0
1000
SOLID
1070
     1
1070
     1
1071
        1
1071
        1
1071
        1
1070
     4
1070
     3
1070
     0
1070
     1
1071
       29
1071
       25
1040
0.0
1040
0.0
1040
0.0
1040
0.0
1040
1.0
1040
1.0
1040
1.0
1040
2.0
1040
2.0
1040
2.0
1040
3.0
1040
3.0
1040
3.0
1040
4.0
1040
4.0
1040
4.0
1040
5.0
1040
5.0
1040
5.0
1040
6.0
1040
6.0
1040
6.0
1040
7.0
1040
7.0
1040
7.0
1040
8.0
1040
8.0
1040
8.0
1040
8.0
1040
156.3153509808864
1040
169.4594237857602
1040
157.2686089016551
1040
169.4594237857602
1040
157.2686089016551
1040
180.1364637136464
1040
157.2686089016551
1040
180.1364637136464
1040
157.2686089016551
1040
181.0897216344151
1040
158.1264376774823
1040
182.0429795551837
1040
159.0796955982509
1040
182.0429795551837
1040
159.0796955982509
1040
182.0429795551837
1040
185.7722954179667
1040
184.3310397217124
1040
185.7722954179667
1040
184.3310397217124
1040
185.7722954179667
1040
184.3310397217124
1040
185.7722954179667
1040
185.4749836775896
1040
185.7722954179667
1040
185.4749836775896
1040
185.7722954179667
1040
185.4749836775896
1040
158.984610962858
1040
183.1870957658352
1040
158.984610962858
1040
183.1870957658352
1040
157.4591226819894
1040
182.9964097307266
1040
156.3153509808864
1040
181.6617797397408
1040
156.3153509808864
1040
180.1364637136464
1040
156.3153509808864
1040
180.1364637136464
1040
156.3153509808864
1040
169.4594237857602
1040
156.3153509808864
1040
169.4594237857602
1040
156.3153509808864
1040
169.4594237857602
1040
156.3153509808864
1040
169.4594237857602
1040
156.3153509808864
1040
169.4594237857602
1071
        0
1070
     0
1070
     1
1071
        0
1002
}
  0
ENDBLK
  5
2B2
330
2AF
100
AcDbEntity
  8
0
100
AcDbBlockEnd
  0
BLOCK
  5
2B7
330
2B5
100
AcDbEntity
  8
0
100
AcDbBlockBegin
  2
BLOCK_86
 70
     0
 71
     0
 10
0.0
 20
0.0
 30
0.0
  3
BLOCK_86
  1

  0
POLYLINE
  5
2B9
330
2B5
100
AcDbEntity
  8
EBENE_1
 62
     7
100
AcDb2dPolyline
 66
     1
 10
0.0
 20
0.0
 30
0.0
  0
VERTEX
  5
2BA
330
2B9
100
AcDbEntity
  8
EBENE_1
 62
     7
100
AcDbVertex
100
AcDb2dVertex
 10
175.2116997174818
 20
111.3730468471567
 30
0.0
  0
VERTEX
  5
2BB
330
2B9
100
AcDbEntity
  8
EBENE_1
 62
     7
100
AcDbVertex
100
AcDb2dVertex
 10
188.3712754520391
 20
109.5729844561137
 30
0.0
  0
SEQEND
  5
2BC
330
2B9
100
AcDbEntity
  8
EBENE_1
  0
ENDBLK
  5
2B8
330
2B5
100
AcDbEntity
  8
0
100
AcDbBlockEnd
  0
BLOCK
  5
2BF
330
2BD
100
AcDbEntity
  8
0
100
AcDbBlockBegin
  2
BLOCK_87
 70
     0
 71
     0
 10
0.0
 20
0.0
 30
0.0
  3
BLOCK_87
  1

  0
SPLINE
  5
2C1
330
2BD
100
AcDbEntity
  8
EBENE_1
 62
     7
100
AcDbSpline
210
0.0
220
0.0
230
1.0
 70
     8
 71
     3
 72
     8
 73
     4
 74
     0
 42
0.0000000001
 43
0.0000000001
 40
0.0
 40
0.0
 40
0.0
 40
0.0
 40
1.0
 40
1.0
 40
1.0
 40
1.0
 10
188.7368000830241
 20
109.1058295083138
 30
0.0
 10
188.734733025733
 20
109.3263156193698
 30
0.0
 10
188.5848713721246
 20
109.5178629283497
 30
0.0
 10
188.3712754520391
 20
109.5729844561137
 30
0.0
  0
ENDBLK
  5
2C0
330
2BD
100
AcDbEntity
  8
0
100
AcDbBlockEnd
  0
BLOCK
  5
2C4
330
2C2
100
AcDbEntity
  8
0
100
AcDbBlockBegin
  2
BLOCK_88
 70
     0
 71
     0
 10
0.0
 20
0.0
 30
0.0
  3
BLOCK_88
  1

  0
POLYLINE
  5
2C6
330
2C2
100
AcDbEntity
  8
EBENE_1
 62
     7
100
AcDb2dPolyline
 66
     1
 10
0.0
 20
0.0
 30
0.0
  0
VERTEX
  5
2C7
330
2C6
100
AcDbEntity
  8
EBENE_1
 62
     7
100
AcDbVertex
100
AcDb2dVertex
 10
188.7368000830241
 20
109.1058295083138
 30
0.0
  0
VERTEX
  5
2C8
330
2C6
100
AcDbEntity
  8
EBENE_1
 62
     7
100
AcDbVertex
100
AcDb2dVertex
 10
188.7368000830241
 20
104.1080294878619
 30
0.0
  0
SEQEND
  5
2C9
330
2C6
100
AcDbEntity
  8
EBENE_1
  0
ENDBLK
  5
2C5
330
2C2
100
AcDbEntity
  8
0
100
AcDbBlockEnd
  0
BLOCK
  5
2CC
330
2CA
100
AcDbEntity
  8
0
100
AcDbBlockBegin
  2
BLOCK_89
 70
     0
 71
     0
 10
0.0
 20
0.0
 30
0.0
  3
BLOCK_89
  1

  0
POLYLINE
  5
2CE
330
2CA
100
AcDbEntity
  8
EBENE_1
 62
     7
100
AcDb2dPolyline
 66
     1
 10
0.0
 20
0.0
 30
0.0
  0
VERTEX
  5
2CF
330
2CE
100
AcDbEntity
  8
EBENE_1
 62
     7
100
AcDbVertex
100
AcDb2dVertex
 10
188.7368000830241
 20
104.1080294878619
 30
0.0
  0
VERTEX
  5
2D0
330
2CE
100
AcDbEntity
  8
EBENE_1
 62
     7
100
AcDbVertex
100
AcDb2dVertex
 10
189.7131401435439
 20
104.1080294878619
 30
0.0
  0
SEQEND
  5
2D1
330
2CE
100
AcDbEntity
  8
EBENE_1
  0
ENDBLK
  5
2CD
330
2CA
100
AcDbEntity
  8
0
100
AcDbBlockEnd
  0
BLOCK
  5
2D4
330
2D2
100
AcDbEntity
  8
0
100
AcDbBlockBegin
  2
BLOCK_90
 70
     0
 71
     0
 10
0.0
 20
0.0
 30
0.0
  3
BLOCK_90
  1

  0
POLYLINE
  5
2D6
330
2D2
100
AcDbEntity
  8
EBENE_1
 62
     7
100
AcDb2dPolyline
 66
     1
 10
0.0
 20
0.0
 30
0.0
  0
VERTEX
  5
2D7
330
2D6
100
AcDbEntity
  8
EBENE_1
 62
     7
100
AcDbVertex
100
AcDb2dVertex
 10
189.7131401435439
 20
104.1080294878619
 30
0.0
  0
VERTEX
  5
2D8
330
2D6
100
AcDbEntity
  8
EBENE_1
 62
     7
100
AcDbVertex
100
AcDb2dVertex
 10
189.7090060289617
 20
109.5089056800881
 30
0.0
  0
SEQEND
  5
2D9
330
2D6
100
AcDbEntity
  8
EBENE_1
  0
ENDBLK
  5
2D5
330
2D2
100
AcDbEntity
  8
0
100
AcDbBlockEnd
  0
BLOCK
  5
2DC
330
2DA
100
AcDbEntity
  8
0
100
AcDbBlockBegin
  2
BLOCK_91
 70
     0
 71
     0
 10
0.0
 20
0.0
 30
0.0
  3
BLOCK_91
  1

  0
SPLINE
  5
2DE
330
2DA
100
AcDbEntity
  8
EBENE_1
 62
     7
100
AcDbSpline
210
0.0
220
0.0
230
1.0
 70
     8
 71
     3
 72
     8
 73
     4
 74
     0
 42
0.0000000001
 43
0.0000000001
 40
0.0
 40
0.0
 40
0.0
 40
0.0
 40
1.0
 40
1.0
 40
1.0
 40
1.0
 10
189.7090060289617
 20
109.5089056800881
 30
0.0
 10
189.7069389716705
 20
109.9857068952466
 30
0.0
 10
189.362773932694
 20
110.3918836529576
 30
0.0
 10
188.8932074180545
 20
110.4724988873124
 30
0.0
  0
ENDBLK
  5
2DD
330
2DA
100
AcDbEntity
  8
0
100
AcDbBlockEnd
  0
BLOCK
  5
2E1
330
2DF
100
AcDbEntity
  8
0
100
AcDbBlockBegin
  2
BLOCK_92
 70
     0
 71
     0
 10
0.0
 20
0.0
 30
0.0
  3
BLOCK_92
  1

  0
POLYLINE
  5
2E3
330
2DF
100
AcDbEntity
  8
EBENE_1
 62
     7
100
AcDb2dPolyline
 66
     1
 10
0.0
 20
0.0
 30
0.0
  0
VERTEX
  5
2E4
330
2E3
100
AcDbEntity
  8
EBENE_1
 62
     7
100
AcDbVertex
100
AcDb2dVertex
 10
188.8932074180545
 20
110.4724988873124
 30
0.0
  0
VERTEX
  5
2E5
330
2E3
100
AcDbEntity
  8
EBENE_1
 62
     7
100
AcDbVertex
100
AcDb2dVertex
 10
175.8152804464976
 20
112.2880642080391
 30
0.0
  0
SEQEND
  5
2E6
330
2E3
100
AcDbEntity
  8
EBENE_1
  0
ENDBLK
  5
2E2
330
2DF
100
AcDbEntity
  8
0
100
AcDbBlockEnd
  0
BLOCK
  5
2E9
330
2E7
100
AcDbEntity
  8
0
100
AcDbBlockBegin
  2
BLOCK_93
 70
     0
 71
     0
 10
0.0
 20
0.0
 30
0.0
  3
BLOCK_93
  1

  0
SPLINE
  5
2EB
330
2E7
100
AcDbEntity
  8
EBENE_1
 62
     7
100
AcDbSpline
210
0.0
220
0.0
230
1.0
 70
     8
 71
     3
 72
    26
 73
    22
 74
     0
 42
0.0000000001
 43
0.0000000001
 40
0.0
 40
0.0
 40
0.0
 40
0.0
 40
1.0
 40
1.0
 40
1.0
 40
2.0
 40
2.0
 40
2.0
 40
3.0
 40
3.0
 40
3.0
 40
4.0
 40
4.0
 40
4.0
 40
5.0
 40
5.0
 40
5.0
 40
6.0
 40
6.0
 40
6.0
 40
7.0
 40
7.0
 40
7.0
 40
7.0
 10
157.3037488756046
 20
132.0815158089935
 30
0.0
 10
157.3037488756046
 20
132.0815158089935
 30
0.0
 10
157.2958251559886
 20
159.5316921259157
 30
0.0
 10
157.2958251559886
 20
159.5316921259157
 30
0.0
 10
157.2992702514738
 20
160.0694715311632
 30
0.0
 10
156.8655327298808
 20
160.508376695984
 30
0.0
 10
156.3277533246333
 20
160.511649536695
 30
0.0
 10
156.3277533246333
 20
160.511649536695
 30
0.0
 10
148.7134032831342
 20
160.511649536695
 30
0.0
 10
148.7134032831342
 20
160.511649536695
 30
0.0
 10
148.7134032831342
 20
160.511649536695
 30
0.0
 10
148.7134032831342
 20
159.5354817309495
 30
0.0
 10
148.7134032831342
 20
159.5354817309495
 30
0.0
 10
148.7134032831342
 20
159.5354817309495
 30
0.0
 10
155.8316595747574
 20
159.5316921259157
 30
0.0
 10
155.8316595747574
 20
159.5316921259157
 30
0.0
 10
156.102444079898
 20
159.5349649666267
 30
0.0
 10
156.3246527386966
 20
159.3180962058302
 30
0.0
 10
156.3277533246333
 20
159.0473117006896
 30
0.0
 10
156.3277533246333
 20
159.0473117006896
 30
0.0
 10
156.3277533246333
 20
132.0970187386771
 30
0.0
 10
156.3277533246333
 20
132.0970187386771
 30
0.0
  0
ENDBLK
  5
2EA
330
2E7
100
AcDbEntity
  8
0
100
AcDbBlockEnd
  0
BLOCK
  5
2EE
330
2EC
100
AcDbEntity
  8
0
100
AcDbBlockBegin
  2
BLOCK_94
 70
     0
 71
     0
 10
0.0
 20
0.0
 30
0.0
  3
BLOCK_94
  1

  0
SPLINE
  5
2F0
330
2EC
100
AcDbEntity
  8
EBENE_1
100
AcDbSpline
210
0.0
220
0.0
230
1.0
 70
    11
 71
     3
 72
    41
 73
    37
 74
     0
 42
0.0000000001
 43
0.0000000001
 40
0.0
 40
0.0
 40
0.0
 40
0.0
 40
1.0
 40
1.0
 40
1.0
 40
2.0
 40
2.0
 40
2.0
 40
3.0
 40
3.0
 40
3.0
 40
4.0
 40
4.0
 40
4.0
 40
5.0
 40
5.0
 40
5.0
 40
6.0
 40
6.0
 40
6.0
 40
7.0
 40
7.0
 40
7.0
 40
8.0
 40
8.0
 40
8.0
 40
9.0
 40
9.0
 40
9.0
 40
10.0
 40
10.0
 40
10.0
 40
11.0
 40
11.0
 40
11.0
 40
12.0
 40
12.0
 40
12.0
 40
12.0
 10
157.2686089016551
 20
132.0901285477066
 30
0.0
 10
157.2686089016551
 20
132.0901285477066
 30
0.0
 10
157.2686089016551
 20
159.5451279983082
 30
0.0
 10
157.2686089016551
 20
159.5451279983082
 30
0.0
 10
157.2686089016551
 20
160.1171861036339
 30
0.0
 10
156.8872368314379
 20
160.4983859190768
 30
0.0
 10
156.3153509808864
 20
160.4983859190768
 30
0.0
 10
156.3153509808864
 20
160.4983859190768
 30
0.0
 10
148.6889431051889
 20
160.4983859190768
 30
0.0
 10
148.6889431051889
 20
160.4983859190768
 30
0.0
 10
148.6889431051889
 20
159.5451279983082
 30
0.0
 10
155.8385497657279
 20
159.5451279983082
 30
0.0
 10
155.8385497657279
 20
159.5451279983082
 30
0.0
 10
156.3153509808864
 20
158.9732421477567
 30
0.0
 10
156.3153509808864
 20
132.0901285477066
 30
0.0
 10
156.3153509808864
 20
132.0901285477066
 30
0.0
 10
156.1244926910036
 20
121.6036024001547
 30
0.0
 10
164.2277017818597
 20
112.6429090430198
 30
0.0
 10
175.1906846350218
 20
111.3082790520341
 30
0.0
 10
175.1906846350218
 20
111.3082790520341
 30
0.0
 10
188.3461262549968
 20
109.5922769908311
 30
0.0
 10
188.3461262549968
 20
109.5922769908311
 30
0.0
 10
188.727498325214
 20
109.0200466307311
 30
0.0
 10
188.727498325214
 20
104.0628987370051
 30
0.0
 10
188.727498325214
 20
104.0628987370051
 30
0.0
 10
189.6807562459826
 20
104.0628987370051
 30
0.0
 10
189.6807562459826
 20
109.5922769908311
 30
0.0
 10
189.6807562459826
 20
109.5922769908311
 30
0.0
 10
188.9180121055483
 20
110.5455349115997
 30
0.0
 10
175.8579996305147
 20
112.2615369728027
 30
0.0
 10
175.8579996305147
 20
112.2615369728027
 30
0.0
 10
165.1809597026284
 20
113.4053086739056
 30
0.0
 10
157.0777506117722
 20
121.9849744703718
 30
0.0
 10
157.2686089016551
 20
132.0901285477066
 30
0.0
 10
157.2686089016551
 20
132.0901285477066
 30
0.0
 10
157.2686089016551
 20
132.0901285477066
 30
0.0
 10
157.2686089016551
 20
132.0901285477066
 30
0.0
  0
INSERT
  5
2F1
330
2EC
100
AcDbEntity
  8
EBENE_1
 62
     7
100
AcDbBlockReference
  2
*U96
 10
0.0
 20
0.0
 30
0.0
1001
ACAD
1002
{
1000
R14_HATCH_DATA
1000
2F1
1011
1.0
1021
0.0
1031
0.0
1011
0.0
1021
1.0
1031
0.0
1011
0.0
1021
0.0
1031
1.0
1040
0.0
1010
0.0
1020
0.0
1030
1.0
1000
SOLID
1070
     1
1070
     1
1071
        1
1071
        1
1071
        1
1070
     4
1070
     3
1070
     0
1070
     1
1071
       41
1071
       37
1040
0.0
1040
0.0
1040
0.0
1040
0.0
1040
1.0
1040
1.0
1040
1.0
1040
2.0
1040
2.0
1040
2.0
1040
3.0
1040
3.0
1040
3.0
1040
4.0
1040
4.0
1040
4.0
1040
5.0
1040
5.0
1040
5.0
1040
6.0
1040
6.0
1040
6.0
1040
7.0
1040
7.0
1040
7.0
1040
8.0
1040
8.0
1040
8.0
1040
9.0
1040
9.0
1040
9.0
1040
10.0
1040
10.0
1040
10.0
1040
11.0
1040
11.0
1040
11.0
1040
12.0
1040
12.0
1040
12.0
1040
12.0
1040
157.2686089016551
1040
132.0901285477066
1040
157.2686089016551
1040
132.0901285477066
1040
157.2686089016551
1040
159.5451279983082
1040
157.2686089016551
1040
159.5451279983082
1040
157.2686089016551
1040
160.1171861036339
1040
156.8872368314379
1040
160.4983859190768
1040
156.3153509808864
1040
160.4983859190768
1040
156.3153509808864
1040
160.4983859190768
1040
148.6889431051889
1040
160.4983859190768
1040
148.6889431051889
1040
160.4983859190768
1040
148.6889431051889
1040
159.5451279983082
1040
155.8385497657279
1040
159.5451279983082
1040
155.8385497657279
1040
159.5451279983082
1040
156.3153509808864
1040
158.9732421477567
1040
156.3153509808864
1040
132.0901285477066
1040
156.3153509808864
1040
132.0901285477066
1040
156.1244926910036
1040
121.6036024001547
1040
164.2277017818597
1040
112.6429090430198
1040
175.1906846350218
1040
111.3082790520341
1040
175.1906846350218
1040
111.3082790520341
1040
188.3461262549968
1040
109.5922769908311
1040
188.3461262549968
1040
109.5922769908311
1040
188.727498325214
1040
109.0200466307311
1040
188.727498325214
1040
104.0628987370051
1040
188.727498325214
1040
104.0628987370051
1040
189.6807562459826
1040
104.0628987370051
1040
189.6807562459826
1040
109.5922769908311
1040
189.6807562459826
1040
109.5922769908311
1040
188.9180121055483
1040
110.5455349115997
1040
175.8579996305147
1040
112.2615369728027
1040
175.8579996305147
1040
112.2615369728027
1040
165.1809597026284
1040
113.4053086739056
1040
157.0777506117722
1040
121.9849744703718
1040
157.2686089016551
1040
132.0901285477066
1040
157.2686089016551
1040
132.0901285477066
1040
157.2686089016551
1040
132.0901285477066
1040
157.2686089016551
1040
132.0901285477066
1071
        0
1070
     0
1070
     1
1071
        0
1002
}
  0
ENDBLK
  5
2EF
330
2EC
100
AcDbEntity
  8
0
100
AcDbBlockEnd
  0
BLOCK
  5
336
330
2F3
100
AcDbEntity
  8
0
100
AcDbBlockBegin
  2
*U94
 70
     1
 71
     0
 10
0.0
 20
0.0
 30
0.0
  3
*U94
  1

  0
SOLID
  5
2F4
330
2F3
100
AcDbEntity
  8
EBENE_1
 62
     7
100
AcDbTrace
 10
148.934704912887
 20
170.0981475166414
 30
0.0
 11
148.6889431051889
 21
170.4128539613031
 31
0.0
 12
148.934704912887
 22
170.4194066621299
 32
0.0
 13
148.934704912887
 23
170.4194066621299
 33
0.0
  0
SOLID
  5
2F5
330
2F3
100
AcDbEntity
  8
EBENE_1
 62
     7
100
AcDbTrace
 10
148.934704912887
 20
170.0981475166414
 30
0.0
 11
148.934704912887
 21
170.4194066621299
 31
0.0
 12
149.5826224059095
 22
169.8616521410673
 32
0.0
 13
149.5826224059095
 23
169.8616521410673
 33
0.0
  0
SOLID
  5
2F6
330
2F3
100
AcDbEntity
  8
EBENE_1
 62
     7
100
AcDbTrace
 10
149.5826224059095
 20
169.8616521410673
 30
0.0
 11
148.934704912887
 21
170.4194066621299
 31
0.0
 12
149.5826224059095
 22
170.4366819643098
 32
0.0
 13
149.5826224059095
 23
170.4366819643098
 33
0.0
  0
SOLID
  5
2F7
330
2F3
100
AcDbEntity
  8
EBENE_1
 62
     7
100
AcDbTrace
 10
149.5826224059095
 20
169.8616521410673
 30
0.0
 11
149.5826224059095
 21
170.4366819643098
 31
0.0
 12
151.370045602891
 22
169.6043250384858
 32
0.0
 13
151.370045602891
 23
169.6043250384858
 33
0.0
  0
SOLID
  5
2F8
330
2F3
100
AcDbEntity
  8
EBENE_1
 62
     7
100
AcDbTrace
 10
151.370045602891
 20
169.6043250384858
 30
0.0
 11
149.5826224059095
 21
170.4366819643098
 31
0.0
 12
151.370045602891
 22
170.484339692622
 32
0.0
 13
151.370045602891
 23
170.484339692622
 33
0.0
  0
SOLID
  5
2F9
330
2F3
100
AcDbEntity
  8
EBENE_1
 62
     7
100
AcDbTrace
 10
151.370045602891
 20
169.6043250384858
 30
0.0
 11
151.370045602891
 21
170.484339692622
 31
0.0
 12
151.5487168674948
 22
169.578602557703
 32
0.0
 13
151.5487168674948
 23
169.578602557703
 33
0.0
  0
SOLID
  5
2FA
330
2F3
100
AcDbEntity
  8
EBENE_1
 62
     7
100
AcDbTrace
 10
151.5487168674948
 20
169.578602557703
 30
0.0
 11
151.370045602891
 21
170.484339692622
 31
0.0
 12
151.5487168674948
 22
170.4999458120244
 32
0.0
 13
151.5487168674948
 23
170.4999458120244
 33
0.0
  0
SOLID
  5
2FB
330
2F3
100
AcDbEntity
  8
EBENE_1
 62
     7
100
AcDbTrace
 10
151.5487168674948
 20
169.578602557703
 30
0.0
 11
151.5487168674948
 21
170.4999458120244
 31
0.0
 12
153.3138061564008
 22
169.5050438809314
 32
0.0
 13
153.3138061564008
 23
169.5050438809314
 33
0.0
  0
SOLID
  5
2FC
330
2F3
100
AcDbEntity
  8
EBENE_1
 62
     7
100
AcDbTrace
 10
153.3138061564008
 20
169.5050438809314
 30
0.0
 11
151.5487168674948
 21
170.4999458120244
 31
0.0
 12
153.3138061564008
 22
170.6541183045045
 32
0.0
 13
153.3138061564008
 23
170.6541183045045
 33
0.0
  0
SOLID
  5
2FD
330
2F3
100
AcDbEntity
  8
EBENE_1
 62
     7
100
AcDbTrace
 10
153.3138061564008
 20
169.5050438809314
 30
0.0
 11
153.3138061564008
 21
170.6541183045045
 31
0.0
 12
154.4084906298007
 22
169.4594237857602
 32
0.0
 13
154.4084906298007
 23
169.4594237857602
 33
0.0
  0
SOLID
  5
2FE
330
2F3
100
AcDbEntity
  8
EBENE_1
 62
     7
100
AcDbTrace
 10
154.4084906298007
 20
169.4594237857602
 30
0.0
 11
153.3138061564008
 21
170.6541183045045
 31
0.0
 12
154.4084906298007
 22
170.9847398118545
 32
0.0
 13
154.4084906298007
 23
170.9847398118545
 33
0.0
  0
SOLID
  5
2FF
330
2F3
100
AcDbEntity
  8
EBENE_1
 62
     7
100
AcDbTrace
 10
-154.4084906298007
 20
169.4594237857602
 30
0.0
 11
-154.4084906298007
 21
180.1364637136464
 31
0.0
 12
-154.4952666638162
 22
169.4941279294217
 32
0.0
 13
-154.4952666638162
 23
169.4941279294217
 33
0.0
210
0.0
220
0.0
230
-1.0
  0
SOLID
  5
300
330
2F3
100
AcDbEntity
  8
EBENE_1
 62
     7
100
AcDbTrace
 10
154.4952666638162
 20
169.4941279294217
 30
0.0
 11
154.4084906298007
 21
180.1364637136464
 31
0.0
 12
154.4952666638162
 22
181.1080146204326
 32
0.0
 13
154.4952666638162
 23
181.1080146204326
 33
0.0
  0
SOLID
  5
301
330
2F3
100
AcDbEntity
  8
EBENE_1
 62
     7
100
AcDbTrace
 10
-154.4952666638162
 20
169.4941279294217
 30
0.0
 11
-154.4952666638162
 21
181.1080146204326
 31
0.0
 12
-154.7451625860967
 22
169.5940682422702
 32
0.0
 13
-154.7451625860967
 23
169.5940682422702
 33
0.0
210
0.0
220
0.0
230
-1.0
  0
SOLID
  5
302
330
2F3
100
AcDbEntity
  8
EBENE_1
 62
     7
100
AcDbTrace
 10
154.7451625860967
 20
169.5940682422702
 30
0.0
 11
154.4952666638162
 21
181.1080146204326
 31
0.0
 12
154.7451625860967
 22
182.0102969032482
 32
0.0
 13
154.7451625860967
 23
182.0102969032482
 33
0.0
  0
SOLID
  5
303
330
2F3
100
AcDbEntity
  8
EBENE_1
 62
     7
100
AcDbTrace
 10
-154.7451625860967
 20
169.5940682422702
 30
0.0
 11
-154.7451625860967
 21
182.0102969032482
 31
0.0
 12
-155.0640923006437
 22
169.7216170840344
 32
0.0
 13
-155.0640923006437
 23
169.7216170840344
 33
0.0
210
0.0
220
0.0
230
-1.0
  0
SOLID
  5
304
330
2F3
100
AcDbEntity
  8
EBENE_1
 62
     7
100
AcDbTrace
 10
155.0640923006437
 20
169.7216170840344
 30
0.0
 11
154.7451625860967
 21
182.0102969032482
 31
0.0
 12
155.0640923006437
 22
182.6663276616831
 32
0.0
 13
155.0640923006437
 23
182.6663276616831
 33
0.0
  0
SOLID
  5
305
330
2F3
100
AcDbEntity
  8
EBENE_1
 62
     7
100
AcDbTrace
 10
-155.0640923006437
 20
169.7216170840344
 30
0.0
 11
-155.0640923006437
 21
182.6663276616831
 31
0.0
 12
-155.1425301269927
 22
169.9035599698206
 32
0.0
 13
-155.1425301269927
 23
169.9035599698206
 33
0.0
210
0.0
220
0.0
230
-1.0
  0
SOLID
  5
306
330
2F3
100
AcDbEntity
  8
EBENE_1
 62
     7
100
AcDbTrace
 10
155.1425301269927
 20
169.9035599698206
 30
0.0
 11
155.0640923006437
 21
182.6663276616831
 31
0.0
 12
155.1425301269927
 22
182.8276723854972
 32
0.0
 13
155.1425301269927
 23
182.8276723854972
 33
0.0
  0
SOLID
  5
307
330
2F3
100
AcDbEntity
  8
EBENE_1
 62
     7
100
AcDbTrace
 10
-155.1425301269927
 20
169.9035599698206
 30
0.0
 11
-155.1425301269927
 21
182.8276723854972
 31
0.0
 12
-155.3620930601178
 22
170.4128539613031
 32
0.0
 13
-155.3620930601178
 23
170.4128539613031
 33
0.0
210
0.0
220
0.0
230
-1.0
  0
SOLID
  5
308
330
2F3
100
AcDbEntity
  8
EBENE_1
 62
     7
100
AcDbTrace
 10
155.3620930601178
 20
170.4128539613031
 30
0.0
 11
155.1425301269927
 21
182.8276723854972
 31
0.0
 12
155.3620930601178
 22
183.1250875739772
 32
0.0
 13
155.3620930601178
 23
183.1250875739772
 33
0.0
  0
SOLID
  5
309
330
2F3
100
AcDbEntity
  8
EBENE_1
 62
     7
100
AcDbTrace
 10
-155.3620930601178
 20
180.1364637136464
 30
0.0
 11
-155.3620930601178
 21
183.1250875739772
 31
0.0
 12
-155.6316771648003
 22
181.5902186469581
 32
0.0
 13
-155.6316771648003
 23
181.5902186469581
 33
0.0
210
0.0
220
0.0
230
-1.0
  0
SOLID
  5
30A
330
2F3
100
AcDbEntity
  8
EBENE_1
 62
     7
100
AcDbTrace
 10
155.6316771648003
 20
181.5902186469581
 30
0.0
 11
155.3620930601178
 21
183.1250875739772
 31
0.0
 12
155.6316771648003
 22
183.4902603568516
 32
0.0
 13
155.6316771648003
 23
183.4902603568516
 33
0.0
  0
SOLID
  5
30B
330
2F3
100
AcDbEntity
  8
EBENE_1
 62
     7
100
AcDbTrace
 10
-155.6316771648003
 20
181.5902186469581
 30
0.0
 11
-155.6316771648003
 21
183.4902603568516
 31
0.0
 12
-155.6717210168547
 22
181.6531369524124
 32
0.0
 13
-155.6717210168547
 23
181.6531369524124
 33
0.0
210
0.0
220
0.0
230
-1.0
  0
SOLID
  5
30C
330
2F3
100
AcDbEntity
  8
EBENE_1
 62
     7
100
AcDbTrace
 10
155.6717210168547
 20
181.6531369524124
 30
0.0
 11
155.6316771648003
 21
183.4902603568516
 31
0.0
 12
155.6717210168547
 22
183.5445028905831
 32
0.0
 13
155.6717210168547
 23
183.5445028905831
 33
0.0
  0
SOLID
  5
30D
330
2F3
100
AcDbEntity
  8
EBENE_1
 62
     7
100
AcDbTrace
 10
-155.6717210168547
 20
181.6531369524124
 30
0.0
 11
-155.6717210168547
 21
183.5445028905831
 31
0.0
 12
-156.3170869860333
 22
182.6671586085571
 32
0.0
 13
-156.3170869860333
 23
182.6671586085571
 33
0.0
210
0.0
220
0.0
230
-1.0
  0
SOLID
  5
30E
330
2F3
100
AcDbEntity
  8
EBENE_1
 62
     7
100
AcDbTrace
 10
156.3170869860333
 20
182.6671586085571
 30
0.0
 11
155.6717210168547
 21
183.5445028905831
 31
0.0
 12
156.3170869860333
 22
184.1451502419098
 32
0.0
 13
156.3170869860333
 23
184.1451502419098
 33
0.0
  0
SOLID
  5
30F
330
2F3
100
AcDbEntity
  8
EBENE_1
 62
     7
100
AcDbTrace
 10
-156.3170869860333
 20
182.6671586085571
 30
0.0
 11
-156.3170869860333
 21
184.1451502419098
 31
0.0
 12
-156.3749080690877
 22
182.7580091231473
 32
0.0
 13
-156.3749080690877
 23
182.7580091231473
 33
0.0
210
0.0
220
0.0
230
-1.0
  0
SOLID
  5
310
330
2F3
100
AcDbEntity
  8
EBENE_1
 62
     7
100
AcDbTrace
 10
156.3749080690877
 20
182.7580091231473
 30
0.0
 11
156.3170869860333
 21
184.1451502419098
 31
0.0
 12
156.3749080690877
 22
184.1814933049685
 32
0.0
 13
156.3749080690877
 23
184.1814933049685
 33
0.0
  0
SOLID
  5
311
330
2F3
100
AcDbEntity
  8
EBENE_1
 62
     7
100
AcDbTrace
 10
-156.3749080690877
 20
182.7580091231473
 30
0.0
 11
-156.3749080690877
 21
184.1814933049685
 31
0.0
 12
-157.0629797648792
 22
183.2564532488543
 32
0.0
 13
-157.0629797648792
 23
183.2564532488543
 33
0.0
210
0.0
220
0.0
230
-1.0
  0
SOLID
  5
312
330
2F3
100
AcDbEntity
  8
EBENE_1
 62
     7
100
AcDbTrace
 10
157.0629797648792
 20
183.2564532488543
 30
0.0
 11
156.3749080690877
 21
184.1814933049685
 31
0.0
 12
157.0629797648792
 22
184.6139762628811
 32
0.0
 13
157.0629797648792
 23
184.6139762628811
 33
0.0
  0
SOLID
  5
313
330
2F3
100
AcDbEntity
  8
EBENE_1
 62
     7
100
AcDbTrace
 10
-157.0629797648792
 20
183.2564532488543
 30
0.0
 11
-157.0629797648792
 21
184.6139762628811
 31
0.0
 12
-157.4935036583398
 22
183.5683278790482
 32
0.0
 13
-157.4935036583398
 23
183.5683278790482
 33
0.0
210
0.0
220
0.0
230
-1.0
  0
SOLID
  5
314
330
2F3
100
AcDbEntity
  8
EBENE_1
 62
     7
100
AcDbTrace
 10
157.4935036583398
 20
183.5683278790482
 30
0.0
 11
157.0629797648792
 21
184.6139762628811
 31
0.0
 12
157.4935036583398
 22
184.780515429198
 32
0.0
 13
157.4935036583398
 23
184.780515429198
 33
0.0
  0
SOLID
  5
315
330
2F3
100
AcDbEntity
  8
EBENE_1
 62
     7
100
AcDbTrace
 10
-157.4935036583398
 20
183.5683278790482
 30
0.0
 11
-157.4935036583398
 21
184.780515429198
 31
0.0
 12
-157.893751083743
 22
183.6776870898938
 32
0.0
 13
-157.893751083743
 23
183.6776870898938
 33
0.0
210
0.0
220
0.0
230
-1.0
  0
SOLID
  5
316
330
2F3
100
AcDbEntity
  8
EBENE_1
 62
     7
100
AcDbTrace
 10
157.893751083743
 20
183.6776870898938
 30
0.0
 11
157.4935036583398
 21
184.780515429198
 31
0.0
 12
157.893751083743
 22
184.9353427769007
 32
0.0
 13
157.893751083743
 23
184.9353427769007
 33
0.0
  0
SOLID
  5
317
330
2F3
100
AcDbEntity
  8
EBENE_1
 62
     7
100
AcDbTrace
 10
-157.893751083743
 20
183.6776870898938
 30
0.0
 11
-157.893751083743
 21
184.9353427769007
 31
0.0
 12
-158.7937526729752
 22
183.9235936399711
 32
0.0
 13
-158.7937526729752
 23
183.9235936399711
 33
0.0
210
0.0
220
0.0
230
-1.0
  0
SOLID
  5
318
330
2F3
100
AcDbEntity
  8
EBENE_1
 62
     7
100
AcDbTrace
 10
158.7937526729752
 20
183.9235936399711
 30
0.0
 11
157.893751083743
 21
184.9353427769007
 31
0.0
 12
158.7937526729752
 22
185.0936116073725
 32
0.0
 13
158.7937526729752
 23
185.0936116073725
 33
0.0
  0
SOLID
  5
319
330
2F3
100
AcDbEntity
  8
EBENE_1
 62
     7
100
AcDbTrace
 10
-158.7937526729752
 20
183.9235936399711
 30
0.0
 11
-158.7937526729752
 21
185.0936116073725
 31
0.0
 12
-158.8891818179166
 22
183.9496676514952
 32
0.0
 13
-158.8891818179166
 23
183.9496676514952
 33
0.0
210
0.0
220
0.0
230
-1.0
  0
SOLID
  5
31A
330
2F3
100
AcDbEntity
  8
EBENE_1
 62
     7
100
AcDbTrace
 10
158.8891818179166
 20
183.9496676514952
 30
0.0
 11
158.7937526729752
 21
185.0936116073725
 31
0.0
 12
158.8891818179166
 22
185.102070314502
 32
0.0
 13
158.8891818179166
 23
185.102070314502
 33
0.0
  0
SOLID
  5
31B
330
2F3
100
AcDbEntity
  8
EBENE_1
 62
     7
100
AcDbTrace
 10
158.8891818179166
 20
183.9496676514952
 30
0.0
 11
158.8891818179166
 21
185.102070314502
 31
0.0
 12
173.5818250434101
 22
185.2897177946498
 32
0.0
 13
173.5818250434101
 23
185.2897177946498
 33
0.0
  0
SOLID
  5
31C
330
2F3
100
AcDbEntity
  8
EBENE_1
 62
     7
100
AcDbTrace
 10
173.5818250434101
 20
185.2897177946498
 30
0.0
 11
158.8891818179166
 21
185.102070314502
 31
0.0
 12
173.5818250434101
 22
186.4044058439696
 32
0.0
 13
173.5818250434101
 23
186.4044058439696
 33
0.0
  0
SOLID
  5
31D
330
2F3
100
AcDbEntity
  8
EBENE_1
 62
     7
100
AcDbTrace
 10
173.5818250434101
 20
185.2897177946498
 30
0.0
 11
173.5818250434101
 21
186.4044058439696
 31
0.0
 12
183.8492000544067
 22
186.2261590559087
 32
0.0
 13
183.8492000544067
 23
186.2261590559087
 33
0.0
  0
SOLID
  5
31E
330
2F3
100
AcDbEntity
  8
EBENE_1
 62
     7
100
AcDbTrace
 10
183.8492000544067
 20
186.2261590559087
 30
0.0
 11
173.5818250434101
 21
186.4044058439696
 31
0.0
 12
183.8492000544067
 22
187.4262453882224
 32
0.0
 13
183.8492000544067
 23
187.4262453882224
 33
0.0
  0
SOLID
  5
31F
330
2F3
100
AcDbEntity
  8
EBENE_1
 62
     7
100
AcDbTrace
 10
183.8492000544067
 20
186.2261590559087
 30
0.0
 11
183.8492000544067
 21
187.4262453882224
 31
0.0
 12
187.3043885928359
 22
186.5412913179862
 32
0.0
 13
187.3043885928359
 23
186.5412913179862
 33
0.0
  0
SOLID
  5
320
330
2F3
100
AcDbEntity
  8
EBENE_1
 62
     7
100
AcDbTrace
 10
187.3043885928359
 20
186.5412913179862
 30
0.0
 11
183.8492000544067
 21
187.4262453882224
 31
0.0
 12
187.3043885928359
 22
187.8489185684849
 32
0.0
 13
187.3043885928359
 23
187.8489185684849
 33
0.0
  0
SOLID
  5
321
330
2F3
100
AcDbEntity
  8
EBENE_1
 62
     7
100
AcDbTrace
 10
-187.3043885928359
 20
186.5412913179862
 30
0.0
 11
-187.3043885928359
 21
187.8489185684849
 31
0.0
 12
-188.1556124746625
 22
186.6189276334668
 32
0.0
 13
-188.1556124746625
 23
186.6189276334668
 33
0.0
210
0.0
220
0.0
230
-1.0
  0
SOLID
  5
322
330
2F3
100
AcDbEntity
  8
EBENE_1
 62
     7
100
AcDbTrace
 10
188.1556124746625
 20
186.6189276334668
 30
0.0
 11
187.3043885928359
 21
187.8489185684849
 31
0.0
 12
188.1556124746625
 22
188.0255653615658
 32
0.0
 13
188.1556124746625
 23
188.0255653615658
 33
0.0
  0
SOLID
  5
323
330
2F3
100
AcDbEntity
  8
EBENE_1
 62
     7
100
AcDbTrace
 10
188.1556124746625
 20
186.6189276334668
 30
0.0
 11
188.1556124746625
 21
188.0255653615658
 31
0.0
 12
188.4862339820125
 22
186.0499028270566
 32
0.0
 13
188.4862339820125
 23
186.0499028270566
 33
0.0
  0
SOLID
  5
324
330
2F3
100
AcDbEntity
  8
EBENE_1
 62
     7
100
AcDbTrace
 10
188.4862339820125
 20
186.0499028270566
 30
0.0
 11
188.1556124746625
 21
188.0255653615658
 31
0.0
 12
188.4862339820125
 22
188.0941762525944
 32
0.0
 13
188.4862339820125
 23
188.0941762525944
 33
0.0
  0
SOLID
  5
325
330
2F3
100
AcDbEntity
  8
EBENE_1
 62
     7
100
AcDbTrace
 10
188.4862339820125
 20
186.0499028270566
 30
0.0
 11
188.4862339820125
 21
188.0941762525944
 31
0.0
 12
188.656012593895
 22
185.3558049056467
 32
0.0
 13
188.656012593895
 23
185.3558049056467
 33
0.0
  0
SOLID
  5
326
330
2F3
100
AcDbEntity
  8
EBENE_1
 62
     7
100
AcDbTrace
 10
188.656012593895
 20
185.3558049056467
 30
0.0
 11
188.4862339820125
 21
188.0941762525944
 31
0.0
 12
188.656012593895
 22
188.1294088723117
 32
0.0
 13
188.656012593895
 23
188.1294088723117
 33
0.0
  0
SOLID
  5
327
330
2F3
100
AcDbEntity
  8
EBENE_1
 62
     7
100
AcDbTrace
 10
188.656012593895
 20
185.3558049056467
 30
0.0
 11
188.656012593895
 21
188.1294088723117
 31
0.0
 12
188.727498325214
 22
184.521725756821
 32
0.0
 13
188.727498325214
 23
184.521725756821
 33
0.0
  0
SOLID
  5
328
330
2F3
100
AcDbEntity
  8
EBENE_1
 62
     7
100
AcDbTrace
 10
188.727498325214
 20
184.521725756821
 30
0.0
 11
188.656012593895
 21
188.1294088723117
 31
0.0
 12
188.727498325214
 22
188.1442436595612
 32
0.0
 13
188.727498325214
 23
188.1442436595612
 33
0.0
  0
SOLID
  5
329
330
2F3
100
AcDbEntity
  8
EBENE_1
 62
     7
100
AcDbTrace
 10
-188.727498325214
 20
184.521725756821
 30
0.0
 11
-188.727498325214
 21
188.1442436595612
 31
0.0
 12
-188.84665556531
 22
184.7276029557606
 32
0.0
 13
-188.84665556531
 23
184.7276029557606
 33
0.0
210
0.0
220
0.0
230
-1.0
  0
SOLID
  5
32A
330
2F3
100
AcDbEntity
  8
EBENE_1
 62
     7
100
AcDbTrace
 10
188.84665556531
 20
184.7276029557606
 30
0.0
 11
188.727498325214
 21
188.1442436595612
 31
0.0
 12
188.84665556531
 22
191.3854756194714
 32
0.0
 13
188.84665556531
 23
191.3854756194714
 33
0.0
  0
SOLID
  5
32B
330
2F3
100
AcDbEntity
  8
EBENE_1
 62
     7
100
AcDbTrace
 10
-188.84665556531
 20
184.7276029557606
 30
0.0
 11
-188.84665556531
 21
191.3854756194714
 31
0.0
 12
-189.0421479123427
 22
185.065370235271
 32
0.0
 13
-189.0421479123427
 23
185.065370235271
 33
0.0
210
0.0
220
0.0
230
-1.0
  0
SOLID
  5
32C
330
2F3
100
AcDbEntity
  8
EBENE_1
 62
     7
100
AcDbTrace
 10
189.0421479123427
 20
185.065370235271
 30
0.0
 11
188.84665556531
 21
191.3854756194714
 31
0.0
 12
189.0421479123427
 22
192.9247942517478
 32
0.0
 13
189.0421479123427
 23
192.9247942517478
 33
0.0
  0
SOLID
  5
32D
330
2F3
100
AcDbEntity
  8
EBENE_1
 62
     7
100
AcDbTrace
 10
-189.0421479123427
 20
185.065370235271
 30
0.0
 11
-189.0421479123427
 21
192.9247942517478
 31
0.0
 12
-189.1296540105382
 22
185.5080131278919
 32
0.0
 13
-189.1296540105382
 23
185.5080131278919
 33
0.0
210
0.0
220
0.0
230
-1.0
  0
SOLID
  5
32E
330
2F3
100
AcDbEntity
  8
EBENE_1
 62
     7
100
AcDbTrace
 10
189.1296540105382
 20
185.5080131278919
 30
0.0
 11
189.0421479123427
 21
192.9247942517478
 31
0.0
 12
189.1296540105382
 22
193.6138225919096
 32
0.0
 13
189.1296540105382
 23
193.6138225919096
 33
0.0
  0
SOLID
  5
32F
330
2F3
100
AcDbEntity
  8
EBENE_1
 62
     7
100
AcDbTrace
 10
-189.1296540105382
 20
185.5080131278919
 30
0.0
 11
-189.1296540105382
 21
193.6138225919096
 31
0.0
 12
-189.2786005606583
 22
186.261447838736
 32
0.0
 13
-189.2786005606583
 23
186.261447838736
 33
0.0
210
0.0
220
0.0
230
-1.0
  0
SOLID
  5
330
330
2F3
100
AcDbEntity
  8
EBENE_1
 62
     7
100
AcDbTrace
 10
189.2786005606583
 20
186.261447838736
 30
0.0
 11
189.1296540105382
 21
193.6138225919096
 31
0.0
 12
189.2786005606583
 22
194.076399987763
 32
0.0
 13
189.2786005606583
 23
194.076399987763
 33
0.0
  0
SOLID
  5
331
330
2F3
100
AcDbEntity
  8
EBENE_1
 62
     7
100
AcDbTrace
 10
-189.2786005606583
 20
186.261447838736
 30
0.0
 11
-189.2786005606583
 21
194.076399987763
 31
0.0
 12
-189.3661066588539
 22
187.3299924553632
 32
0.0
 13
-189.3661066588539
 23
187.3299924553632
 33
0.0
210
0.0
220
0.0
230
-1.0
  0
SOLID
  5
332
330
2F3
100
AcDbEntity
  8
EBENE_1
 62
     7
100
AcDbTrace
 10
189.3661066588539
 20
187.3299924553632
 30
0.0
 11
189.2786005606583
 21
194.076399987763
 31
0.0
 12
189.3661066588539
 22
194.3481642078268
 32
0.0
 13
189.3661066588539
 23
194.3481642078268
 33
0.0
  0
SOLID
  5
333
330
2F3
100
AcDbEntity
  8
EBENE_1
 62
     7
100
AcDbTrace
 10
-189.3661066588539
 20
187.3299924553632
 30
0.0
 11
-189.3661066588539
 21
194.3481642078268
 31
0.0
 12
-189.5615990058865
 22
189.7171665988923
 32
0.0
 13
-189.5615990058865
 23
189.7171665988923
 33
0.0
210
0.0
220
0.0
230
-1.0
  0
SOLID
  5
334
330
2F3
100
AcDbEntity
  8
EBENE_1
 62
     7
100
AcDbTrace
 10
189.5615990058865
 20
189.7171665988923
 30
0.0
 11
189.3661066588539
 21
194.3481642078268
 31
0.0
 12
189.5615990058865
 22
194.5212236990294
 32
0.0
 13
189.5615990058865
 23
194.5212236990294
 33
0.0
  0
SOLID
  5
335
330
2F3
100
AcDbEntity
  8
EBENE_1
 62
     7
100
AcDbTrace
 10
189.5615990058865
 20
189.7171665988923
 30
0.0
 11
189.5615990058865
 21
194.5212236990294
 31
0.0
 12
189.6807562459826
 22
194.6267075793815
 32
0.0
 13
189.6807562459826
 23
194.6267075793815
 33
0.0
  0
ENDBLK
  5
337
330
2F3
100
AcDbEntity
  8
0
100
AcDbBlockEnd
  0
BLOCK
  5
355
330
338
100
AcDbEntity
  8
0
100
AcDbBlockBegin
  2
*U95
 70
     1
 71
     0
 10
0.0
 20
0.0
 30
0.0
  3
*U95
  1

  0
SOLID
  5
339
330
338
100
AcDbEntity
  8
EBENE_1
 62
     7
100
AcDbTrace
 10
-156.3153509808864
 20
169.4594237857602
 30
0.0
 11
-156.3153509808864
 21
180.1364637136464
 31
0.0
 12
-156.4831485787561
 22
169.5793319490128
 32
0.0
 13
-156.4831485787561
 23
169.5793319490128
 33
0.0
210
0.0
220
0.0
230
-1.0
  0
SOLID
  5
33A
330
338
100
AcDbEntity
  8
EBENE_1
 62
     7
100
AcDbTrace
 10
156.4831485787561
 20
169.5793319490128
 30
0.0
 11
156.3153509808864
 21
180.1364637136464
 31
0.0
 12
156.4831485787561
 22
181.0422130997659
 32
0.0
 13
156.4831485787561
 23
181.0422130997659
 33
0.0
  0
SOLID
  5
33B
330
338
100
AcDbEntity
  8
EBENE_1
 62
     7
100
AcDbTrace
 10
-156.4831485787561
 20
169.5793319490128
 30
0.0
 11
-156.4831485787561
 21
181.0422130997659
 31
0.0
 12
-156.5179010635724
 22
169.6595256578791
 32
0.0
 13
-156.5179010635724
 23
169.6595256578791
 33
0.0
210
0.0
220
0.0
230
-1.0
  0
SOLID
  5
33C
330
338
100
AcDbEntity
  8
EBENE_1
 62
     7
100
AcDbTrace
 10
156.5179010635724
 20
169.6595256578791
 30
0.0
 11
156.4831485787561
 21
181.0422130997659
 31
0.0
 12
156.5179010635724
 22
181.2298024466224
 32
0.0
 13
156.5179010635724
 23
181.2298024466224
 33
0.0
  0
SOLID
  5
33D
330
338
100
AcDbEntity
  8
EBENE_1
 62
     7
100
AcDbTrace
 10
-156.5179010635724
 20
169.6595256578791
 30
0.0
 11
-156.5179010635724
 21
181.2298024466224
 31
0.0
 12
-156.6300005680152
 22
169.9182028451615
 32
0.0
 13
-156.6300005680152
 23
169.9182028451615
 33
0.0
210
0.0
220
0.0
230
-1.0
  0
SOLID
  5
33E
330
338
100
AcDbEntity
  8
EBENE_1
 62
     7
100
AcDbTrace
 10
156.6300005680152
 20
169.9182028451615
 30
0.0
 11
156.5179010635724
 21
181.2298024466224
 31
0.0
 12
156.6300005680152
 22
181.4164535737044
 32
0.0
 13
156.6300005680152
 23
181.4164535737044
 33
0.0
  0
SOLID
  5
33F
330
338
100
AcDbEntity
  8
EBENE_1
 62
     7
100
AcDbTrace
 10
-156.6300005680152
 20
169.9182028451615
 30
0.0
 11
-156.6300005680152
 21
181.4164535737044
 31
0.0
 12
-156.8664532163308
 22
171.1277112744924
 32
0.0
 13
-156.8664532163308
 23
171.1277112744924
 33
0.0
210
0.0
220
0.0
230
-1.0
  0
SOLID
  5
340
330
338
100
AcDbEntity
  8
EBENE_1
 62
     7
100
AcDbTrace
 10
156.8664532163308
 20
171.1277112744924
 30
0.0
 11
156.6300005680152
 21
181.4164535737044
 31
0.0
 12
156.8664532163308
 22
181.8101587334998
 32
0.0
 13
156.8664532163308
 23
181.8101587334998
 33
0.0
  0
SOLID
  5
341
330
338
100
AcDbEntity
  8
EBENE_1
 62
     7
100
AcDbTrace
 10
-156.8664532163308
 20
171.1277112744924
 30
0.0
 11
-156.8664532163308
 21
181.8101587334998
 31
0.0
 12
-157.0779228665465
 22
173.8702803268321
 32
0.0
 13
-157.0779228665465
 23
173.8702803268321
 33
0.0
210
0.0
220
0.0
230
-1.0
  0
SOLID
  5
342
330
338
100
AcDbEntity
  8
EBENE_1
 62
     7
100
AcDbTrace
 10
157.0779228665465
 20
173.8702803268321
 30
0.0
 11
156.8664532163308
 21
181.8101587334998
 31
0.0
 12
157.0779228665465
 22
182.1622659863605
 32
0.0
 13
157.0779228665465
 23
182.1622659863605
 33
0.0
  0
SOLID
  5
343
330
338
100
AcDbEntity
  8
EBENE_1
 62
     7
100
AcDbTrace
 10
-157.0779228665465
 20
173.8702803268321
 30
0.0
 11
-157.0779228665465
 21
182.1622659863605
 31
0.0
 12
-157.149451661559
 22
174.7979437497033
 32
0.0
 13
-157.149451661559
 23
174.7979437497033
 33
0.0
210
0.0
220
0.0
230
-1.0
  0
SOLID
  5
344
330
338
100
AcDbEntity
  8
EBENE_1
 62
     7
100
AcDbTrace
 10
157.149451661559
 20
174.7979437497033
 30
0.0
 11
157.0779228665465
 21
182.1622659863605
 31
0.0
 12
157.149451661559
 22
182.219943848152
 32
0.0
 13
157.149451661559
 23
182.219943848152
 33
0.0
  0
SOLID
  5
345
330
338
100
AcDbEntity
  8
EBENE_1
 62
     7
100
AcDbTrace
 10
-157.149451661559
 20
174.7979437497033
 30
0.0
 11
-157.149451661559
 21
182.219943848152
 31
0.0
 12
-157.2686089016551
 22
180.1364637136464
 32
0.0
 13
-157.2686089016551
 23
180.1364637136464
 33
0.0
210
0.0
220
0.0
230
-1.0
  0
SOLID
  5
346
330
338
100
AcDbEntity
  8
EBENE_1
 62
     7
100
AcDbTrace
 10
157.2686089016551
 20
180.1364637136464
 30
0.0
 11
157.149451661559
 21
182.219943848152
 31
0.0
 12
157.2686089016551
 22
182.3160273180961
 32
0.0
 13
157.2686089016551
 23
182.3160273180961
 33
0.0
  0
SOLID
  5
347
330
338
100
AcDbEntity
  8
EBENE_1
 62
     7
100
AcDbTrace
 10
-157.2686089016551
 20
180.1364637136464
 30
0.0
 11
-157.2686089016551
 21
182.3160273180961
 31
0.0
 12
-157.4175393028901
 22
180.8365124992109
 32
0.0
 13
-157.4175393028901
 23
180.8365124992109
 33
0.0
210
0.0
220
0.0
230
-1.0
  0
SOLID
  5
348
330
338
100
AcDbEntity
  8
EBENE_1
 62
     7
100
AcDbTrace
 10
157.4175393028901
 20
180.8365124992109
 30
0.0
 11
157.2686089016551
 21
182.3160273180961
 31
0.0
 12
157.4175393028901
 22
182.4361186337333
 32
0.0
 13
157.4175393028901
 23
182.4361186337333
 33
0.0
  0
SOLID
  5
349
330
338
100
AcDbEntity
  8
EBENE_1
 62
     7
100
AcDbTrace
 10
-157.4175393028901
 20
180.8365124992109
 30
0.0
 11
-157.4175393028901
 21
182.4361186337333
 31
0.0
 12
-157.8166805296648
 22
181.4471933547033
 32
0.0
 13
-157.8166805296648
 23
181.4471933547033
 33
0.0
210
0.0
220
0.0
230
-1.0
  0
SOLID
  5
34A
330
338
100
AcDbEntity
  8
EBENE_1
 62
     7
100
AcDbTrace
 10
157.8166805296648
 20
181.4471933547033
 30
0.0
 11
157.4175393028901
 21
182.4361186337333
 31
0.0
 12
157.8166805296648
 22
182.7579696101015
 32
0.0
 13
157.8166805296648
 23
182.7579696101015
 33
0.0
  0
SOLID
  5
34B
330
338
100
AcDbEntity
  8
EBENE_1
 62
     7
100
AcDbTrace
 10
-157.8166805296648
 20
181.4471933547033
 30
0.0
 11
-157.8166805296648
 21
182.7579696101015
 31
0.0
 12
-157.9239737221835
 22
181.5273916504871
 32
0.0
 13
-157.9239737221835
 23
181.5273916504871
 33
0.0
210
0.0
220
0.0
230
-1.0
  0
SOLID
  5
34C
330
338
100
AcDbEntity
  8
EBENE_1
 62
     7
100
AcDbTrace
 10
157.9239737221835
 20
181.5273916504871
 30
0.0
 11
157.8166805296648
 21
182.7579696101015
 31
0.0
 12
157.9239737221835
 22
182.8444864027888
 32
0.0
 13
157.9239737221835
 23
182.8444864027888
 33
0.0
  0
SOLID
  5
34D
330
338
100
AcDbEntity
  8
EBENE_1
 62
     7
100
AcDbTrace
 10
-157.9239737221835
 20
181.5273916504871
 30
0.0
 11
-157.9239737221835
 21
182.8444864027888
 31
0.0
 12
-158.3945576165835
 22
181.8791383500516
 32
0.0
 13
-158.3945576165835
 23
181.8791383500516
 33
0.0
210
0.0
220
0.0
230
-1.0
  0
SOLID
  5
34E
330
338
100
AcDbEntity
  8
EBENE_1
 62
     7
100
AcDbTrace
 10
158.3945576165835
 20
181.8791383500516
 30
0.0
 11
157.9239737221835
 21
182.8444864027888
 31
0.0
 12
158.3945576165835
 22
182.9964954423901
 32
0.0
 13
158.3945576165835
 23
182.9964954423901
 33
0.0
  0
SOLID
  5
34F
330
338
100
AcDbEntity
  8
EBENE_1
 62
     7
100
AcDbTrace
 10
-158.3945576165835
 20
181.8791383500516
 30
0.0
 11
-158.3945576165835
 21
182.9964954423901
 31
0.0
 12
-158.984610962858
 22
182.020241389049
 32
0.0
 13
-158.984610962858
 23
182.020241389049
 33
0.0
210
0.0
220
0.0
230
-1.0
  0
SOLID
  5
350
330
338
100
AcDbEntity
  8
EBENE_1
 62
     7
100
AcDbTrace
 10
158.984610962858
 20
182.020241389049
 30
0.0
 11
158.3945576165835
 21
182.9964954423901
 31
0.0
 12
158.984610962858
 22
183.1870957658352
 32
0.0
 13
158.984610962858
 23
183.1870957658352
 33
0.0
  0
SOLID
  5
351
330
338
100
AcDbEntity
  8
EBENE_1
 62
     7
100
AcDbTrace
 10
-158.984610962858
 20
182.020241389049
 30
0.0
 11
-158.984610962858
 21
183.1870957658352
 31
0.0
 12
-159.0796955982509
 22
182.0429795551837
 32
0.0
 13
-159.0796955982509
 23
182.0429795551837
 33
0.0
210
0.0
220
0.0
230
-1.0
  0
SOLID
  5
352
330
338
100
AcDbEntity
  8
EBENE_1
 62
     7
100
AcDbTrace
 10
159.0796955982509
 20
182.0429795551837
 30
0.0
 11
158.984610962858
 21
183.1870957658352
 31
0.0
 12
159.0796955982509
 22
183.1952167733927
 32
0.0
 13
159.0796955982509
 23
183.1952167733927
 33
0.0
  0
SOLID
  5
353
330
338
100
AcDbEntity
  8
EBENE_1
 62
     7
100
AcDbTrace
 10
159.0796955982509
 20
182.0429795551837
 30
0.0
 11
159.0796955982509
 21
183.1952167733927
 31
0.0
 12
185.7722954179667
 22
184.3310397217124
 32
0.0
 13
185.7722954179667
 23
184.3310397217124
 33
0.0
  0
SOLID
  5
354
330
338
100
AcDbEntity
  8
EBENE_1
 62
     7
100
AcDbTrace
 10
185.7722954179667
 20
184.3310397217124
 30
0.0
 11
159.0796955982509
 21
183.1952167733927
 31
0.0
 12
185.7722954179667
 22
185.4749836775896
 32
0.0
 13
185.7722954179667
 23
185.4749836775896
 33
0.0
  0
ENDBLK
  5
356
330
338
100
AcDbEntity
  8
0
100
AcDbBlockEnd
  0
BLOCK
  5
39C
330
357
100
AcDbEntity
  8
0
100
AcDbBlockBegin
  2
*U96
 70
     1
 71
     0
 10
0.0
 20
0.0
 30
0.0
  3
*U96
  1

  0
SOLID
  5
358
330
357
100
AcDbEntity
  8
EBENE_1
 62
     7
100
AcDbTrace
 10
-148.9961527663839
 20
160.1837363319481
 30
0.0
 11
-148.6889431051889
 21
160.4983859190768
 31
0.0
 12
-148.9961527663839
 22
160.4983859190768
 32
0.0
 13
-148.9961527663839
 23
160.4983859190768
 33
0.0
210
0.0
220
0.0
230
-1.0
  0
SOLID
  5
359
330
357
100
AcDbEntity
  8
EBENE_1
 62
     7
100
AcDbTrace
 10
148.9961527663839
 20
160.1837363319481
 30
0.0
 11
148.9961527663839
 21
160.4983859190768
 31
0.0
 12
149.8060691458981
 22
159.9472836836325
 32
0.0
 13
149.8060691458981
 23
159.9472836836325
 33
0.0
  0
SOLID
  5
35A
330
357
100
AcDbEntity
  8
EBENE_1
 62
     7
100
AcDbTrace
 10
149.8060691458981
 20
159.9472836836325
 30
0.0
 11
148.9961527663839
 21
160.4983859190768
 31
0.0
 12
149.8060691458981
 22
160.4983859190768
 32
0.0
 13
149.8060691458981
 23
160.4983859190768
 33
0.0
  0
SOLID
  5
35B
330
357
100
AcDbEntity
  8
EBENE_1
 62
     7
100
AcDbTrace
 10
149.8060691458981
 20
159.9472836836325
 30
0.0
 11
149.8060691458981
 21
160.4983859190768
 31
0.0
 12
152.2637464354584
 22
159.6642852384043
 32
0.0
 13
152.2637464354584
 23
159.6642852384043
 33
0.0
  0
SOLID
  5
35C
330
357
100
AcDbEntity
  8
EBENE_1
 62
     7
100
AcDbTrace
 10
152.2637464354584
 20
159.6642852384043
 30
0.0
 11
149.8060691458981
 21
160.4983859190768
 31
0.0
 12
152.2637464354584
 22
160.4983859190768
 32
0.0
 13
152.2637464354584
 23
160.4983859190768
 33
0.0
  0
SOLID
  5
35D
330
357
100
AcDbEntity
  8
EBENE_1
 62
     7
100
AcDbTrace
 10
152.2637464354584
 20
159.6642852384043
 30
0.0
 11
152.2637464354584
 21
160.4983859190768
 31
0.0
 12
155.8385497657279
 22
159.5451279983082
 32
0.0
 13
155.8385497657279
 23
159.5451279983082
 33
0.0
  0
SOLID
  5
35E
330
357
100
AcDbEntity
  8
EBENE_1
 62
     7
100
AcDbTrace
 10
155.8385497657279
 20
159.5451279983082
 30
0.0
 11
152.2637464354584
 21
160.4983859190768
 31
0.0
 12
155.8385497657279
 22
160.4983859190768
 32
0.0
 13
155.8385497657279
 23
160.4983859190768
 33
0.0
  0
SOLID
  5
35F
330
357
100
AcDbEntity
  8
EBENE_1
 62
     7
100
AcDbTrace
 10
155.8385497657279
 20
159.5451279983082
 30
0.0
 11
155.8385497657279
 21
160.4983859190768
 31
0.0
 12
156.1142004682414
 22
155.0140199909503
 32
0.0
 13
156.1142004682414
 23
155.0140199909503
 33
0.0
  0
SOLID
  5
360
330
357
100
AcDbEntity
  8
EBENE_1
 62
     7
100
AcDbTrace
 10
-156.1142004682414
 20
155.0140199909503
 30
0.0
 11
-155.8385497657279
 21
160.4983859190768
 31
0.0
 12
-156.1142004682414
 22
160.4983859190768
 32
0.0
 13
-156.1142004682414
 23
160.4983859190768
 33
0.0
210
0.0
220
0.0
230
-1.0
  0
SOLID
  5
361
330
357
100
AcDbEntity
  8
EBENE_1
 62
     7
100
AcDbTrace
 10
156.1142004682414
 20
155.0140199909503
 30
0.0
 11
156.1142004682414
 21
160.4983859190768
 31
0.0
 12
156.2557508289916
 22
145.6031710790506
 32
0.0
 13
156.2557508289916
 23
145.6031710790506
 33
0.0
  0
SOLID
  5
362
330
357
100
AcDbEntity
  8
EBENE_1
 62
     7
100
AcDbTrace
 10
-156.2557508289916
 20
145.6031710790506
 30
0.0
 11
-156.1142004682414
 21
160.4983859190768
 31
0.0
 12
-156.2557508289916
 22
160.4983859190768
 32
0.0
 13
-156.2557508289916
 23
160.4983859190768
 33
0.0
210
0.0
220
0.0
230
-1.0
  0
SOLID
  5
363
330
357
100
AcDbEntity
  8
EBENE_1
 62
     7
100
AcDbTrace
 10
156.2557508289916
 20
145.6031710790506
 30
0.0
 11
156.2557508289916
 21
160.4983859190768
 31
0.0
 12
156.3153509808864
 22
132.0901285477066
 32
0.0
 13
156.3153509808864
 23
132.0901285477066
 33
0.0
  0
SOLID
  5
364
330
357
100
AcDbEntity
  8
EBENE_1
 62
     7
100
AcDbTrace
 10
-156.3153509808864
 20
132.0901285477066
 30
0.0
 11
-156.2557508289916
 21
160.4983859190768
 31
0.0
 12
-156.3153509808864
 22
160.4983859190768
 32
0.0
 13
-156.3153509808864
 23
160.4983859190768
 33
0.0
210
0.0
220
0.0
230
-1.0
  0
SOLID
  5
365
330
357
100
AcDbEntity
  8
EBENE_1
 62
     7
100
AcDbTrace
 10
156.3153509808864
 20
132.0901285477066
 30
0.0
 11
156.3153509808864
 21
160.4983859190768
 31
0.0
 12
156.621949675929
 22
128.2411191672687
 32
0.0
 13
156.621949675929
 23
128.2411191672687
 33
0.0
  0
SOLID
  5
366
330
357
100
AcDbEntity
  8
EBENE_1
 62
     7
100
AcDbTrace
 10
-156.621949675929
 20
128.2411191672687
 30
0.0
 11
-156.3153509808864
 21
160.4983859190768
 31
0.0
 12
-156.621949675929
 22
160.3821027088714
 32
0.0
 13
-156.621949675929
 23
160.3821027088714
 33
0.0
210
0.0
220
0.0
230
-1.0
  0
SOLID
  5
367
330
357
100
AcDbEntity
  8
EBENE_1
 62
     7
100
AcDbTrace
 10
156.621949675929
 20
128.2411191672687
 30
0.0
 11
156.621949675929
 21
160.3821027088714
 31
0.0
 12
157.0064371352275
 22
126.8717594148758
 32
0.0
 13
157.0064371352275
 23
126.8717594148758
 33
0.0
  0
SOLID
  5
368
330
357
100
AcDbEntity
  8
EBENE_1
 62
     7
100
AcDbTrace
 10
-157.0064371352275
 20
126.8717594148758
 30
0.0
 11
-156.621949675929
 21
160.3821027088714
 31
0.0
 12
-157.0064371352275
 22
160.2362787481896
 32
0.0
 13
-157.0064371352275
 23
160.2362787481896
 33
0.0
210
0.0
220
0.0
230
-1.0
  0
SOLID
  5
369
330
357
100
AcDbEntity
  8
EBENE_1
 62
     7
100
AcDbTrace
 10
157.0064371352275
 20
126.8717594148758
 30
0.0
 11
157.0064371352275
 21
160.2362787481896
 31
0.0
 12
157.2686089016551
 22
125.9380294414338
 32
0.0
 13
157.2686089016551
 23
125.9380294414338
 33
0.0
  0
SOLID
  5
36A
330
357
100
AcDbEntity
  8
EBENE_1
 62
     7
100
AcDbTrace
 10
-157.2686089016551
 20
125.9380294414338
 30
0.0
 11
-157.0064371352275
 21
160.2362787481896
 31
0.0
 12
-157.2686089016551
 22
159.5451279983082
 32
0.0
 13
-157.2686089016551
 23
159.5451279983082
 33
0.0
210
0.0
220
0.0
230
-1.0
  0
SOLID
  5
36B
330
357
100
AcDbEntity
  8
EBENE_1
 62
     7
100
AcDbTrace
 10
157.2686089016551
 20
125.9380294414338
 30
0.0
 11
157.2686089016551
 21
132.0901285477066
 31
0.0
 12
157.5746491144217
 22
124.8480611216842
 32
0.0
 13
157.5746491144217
 23
124.8480611216842
 33
0.0
  0
SOLID
  5
36C
330
357
100
AcDbEntity
  8
EBENE_1
 62
     7
100
AcDbTrace
 10
-157.5746491144217
 20
124.8480611216842
 30
0.0
 11
-157.2686089016551
 21
132.0901285477066
 31
0.0
 12
-157.5746491144217
 22
128.3837467932282
 32
0.0
 13
-157.5746491144217
 23
128.3837467932282
 33
0.0
210
0.0
220
0.0
230
-1.0
  0
SOLID
  5
36D
330
357
100
AcDbEntity
  8
EBENE_1
 62
     7
100
AcDbTrace
 10
157.5746491144217
 20
124.8480611216842
 30
0.0
 11
157.5746491144217
 21
128.3837467932282
 31
0.0
 12
157.6424340595748
 22
124.6066436879917
 32
0.0
 13
157.6424340595748
 23
124.6066436879917
 33
0.0
  0
SOLID
  5
36E
330
357
100
AcDbEntity
  8
EBENE_1
 62
     7
100
AcDbTrace
 10
-157.6424340595748
 20
124.6066436879917
 30
0.0
 11
-157.5746491144217
 21
128.3837467932282
 31
0.0
 12
-157.6424340595748
 22
128.1507608443897
 32
0.0
 13
-157.6424340595748
 23
128.1507608443897
 33
0.0
210
0.0
220
0.0
230
-1.0
  0
SOLID
  5
36F
330
357
100
AcDbEntity
  8
EBENE_1
 62
     7
100
AcDbTrace
 10
157.6424340595748
 20
124.6066436879917
 30
0.0
 11
157.6424340595748
 21
128.1507608443897
 31
0.0
 12
158.5912241221361
 22
122.7050424531671
 32
0.0
 13
158.5912241221361
 23
122.7050424531671
 33
0.0
  0
SOLID
  5
370
330
357
100
AcDbEntity
  8
EBENE_1
 62
     7
100
AcDbTrace
 10
-158.5912241221361
 20
122.7050424531671
 30
0.0
 11
-157.6424340595748
 21
128.1507608443897
 31
0.0
 12
-158.5912241221361
 22
124.8896421332199
 32
0.0
 13
-158.5912241221361
 23
124.8896421332199
 33
0.0
210
0.0
220
0.0
230
-1.0
  0
SOLID
  5
371
330
357
100
AcDbEntity
  8
EBENE_1
 62
     7
100
AcDbTrace
 10
158.5912241221361
 20
122.7050424531671
 30
0.0
 11
158.5912241221361
 21
124.8896421332199
 31
0.0
 12
159.313121003483
 22
121.258189186935
 32
0.0
 13
159.313121003483
 23
121.258189186935
 33
0.0
  0
SOLID
  5
372
330
357
100
AcDbEntity
  8
EBENE_1
 62
     7
100
AcDbTrace
 10
-159.313121003483
 20
121.258189186935
 30
0.0
 11
-158.5912241221361
 21
124.8896421332199
 31
0.0
 12
-159.313121003483
 22
123.4926332257003
 32
0.0
 13
-159.313121003483
 23
123.4926332257003
 33
0.0
210
0.0
220
0.0
230
-1.0
  0
SOLID
  5
373
330
357
100
AcDbEntity
  8
EBENE_1
 62
     7
100
AcDbTrace
 10
159.313121003483
 20
121.258189186935
 30
0.0
 11
159.313121003483
 21
123.4926332257003
 31
0.0
 12
160.2512999028015
 22
120.015040631948
 32
0.0
 13
160.2512999028015
 23
120.015040631948
 33
0.0
  0
SOLID
  5
374
330
357
100
AcDbEntity
  8
EBENE_1
 62
     7
100
AcDbTrace
 10
-160.2512999028015
 20
120.015040631948
 30
0.0
 11
-159.313121003483
 21
123.4926332257003
 31
0.0
 12
-160.2512999028015
 22
121.6770771358202
 32
0.0
 13
-160.2512999028015
 23
121.6770771358202
 33
0.0
210
0.0
220
0.0
230
-1.0
  0
SOLID
  5
375
330
357
100
AcDbEntity
  8
EBENE_1
 62
     7
100
AcDbTrace
 10
160.2512999028015
 20
120.015040631948
 30
0.0
 11
160.2512999028015
 21
121.6770771358202
 31
0.0
 12
161.5703273793123
 22
118.267242741158
 32
0.0
 13
161.5703273793123
 23
118.267242741158
 33
0.0
  0
SOLID
  5
376
330
357
100
AcDbEntity
  8
EBENE_1
 62
     7
100
AcDbTrace
 10
-161.5703273793123
 20
118.267242741158
 30
0.0
 11
-160.2512999028015
 21
121.6770771358202
 31
0.0
 12
-161.5703273793123
 22
119.9893186125177
 32
0.0
 13
-161.5703273793123
 23
119.9893186125177
 33
0.0
210
0.0
220
0.0
230
-1.0
  0
SOLID
  5
377
330
357
100
AcDbEntity
  8
EBENE_1
 62
     7
100
AcDbTrace
 10
161.5703273793123
 20
118.267242741158
 30
0.0
 11
161.5703273793123
 21
119.9893186125177
 31
0.0
 12
162.4878424344215
 22
117.4217057578786
 32
0.0
 13
162.4878424344215
 23
117.4217057578786
 33
0.0
  0
SOLID
  5
378
330
357
100
AcDbEntity
  8
EBENE_1
 62
     7
100
AcDbTrace
 10
-162.4878424344215
 20
117.4217057578786
 30
0.0
 11
-161.5703273793123
 21
119.9893186125177
 31
0.0
 12
-162.4878424344215
 22
118.8153143691677
 32
0.0
 13
-162.4878424344215
 23
118.8153143691677
 33
0.0
210
0.0
220
0.0
230
-1.0
  0
SOLID
  5
379
330
357
100
AcDbEntity
  8
EBENE_1
 62
     7
100
AcDbTrace
 10
162.4878424344215
 20
117.4217057578786
 30
0.0
 11
162.4878424344215
 21
118.8153143691677
 31
0.0
 12
164.3503700587218
 22
115.7052914277201
 32
0.0
 13
164.3503700587218
 23
115.7052914277201
 33
0.0
  0
SOLID
  5
37A
330
357
100
AcDbEntity
  8
EBENE_1
 62
     7
100
AcDbTrace
 10
-164.3503700587218
 20
115.7052914277201
 30
0.0
 11
-162.4878424344215
 21
118.8153143691677
 31
0.0
 12
-164.3503700587218
 22
117.1591705646506
 32
0.0
 13
-164.3503700587218
 23
117.1591705646506
 33
0.0
210
0.0
220
0.0
230
-1.0
  0
SOLID
  5
37B
330
357
100
AcDbEntity
  8
EBENE_1
 62
     7
100
AcDbTrace
 10
164.3503700587218
 20
115.7052914277201
 30
0.0
 11
164.3503700587218
 21
117.1591705646506
 31
0.0
 12
165.2338176949993
 22
115.1430531164401
 32
0.0
 13
165.2338176949993
 23
115.1430531164401
 33
0.0
  0
SOLID
  5
37C
330
357
100
AcDbEntity
  8
EBENE_1
 62
     7
100
AcDbTrace
 10
-165.2338176949993
 20
115.1430531164401
 30
0.0
 11
-164.3503700587218
 21
117.1591705646506
 31
0.0
 12
-165.2338176949993
 22
116.3736164014011
 32
0.0
 13
-165.2338176949993
 23
116.3736164014011
 33
0.0
210
0.0
220
0.0
230
-1.0
  0
SOLID
  5
37D
330
357
100
AcDbEntity
  8
EBENE_1
 62
     7
100
AcDbTrace
 10
165.2338176949993
 20
115.1430531164401
 30
0.0
 11
165.2338176949993
 21
116.3736164014011
 31
0.0
 12
167.5895659133706
 22
113.6438223236805
 32
0.0
 13
167.5895659133706
 23
113.6438223236805
 33
0.0
  0
SOLID
  5
37E
330
357
100
AcDbEntity
  8
EBENE_1
 62
     7
100
AcDbTrace
 10
-167.5895659133706
 20
113.6438223236805
 30
0.0
 11
-165.2338176949993
 21
116.3736164014011
 31
0.0
 12
-167.5895659133706
 22
114.9310962920526
 32
0.0
 13
-167.5895659133706
 23
114.9310962920526
 33
0.0
210
0.0
220
0.0
230
-1.0
  0
SOLID
  5
37F
330
357
100
AcDbEntity
  8
EBENE_1
 62
     7
100
AcDbTrace
 10
167.5895659133706
 20
113.6438223236805
 30
0.0
 11
167.5895659133706
 21
114.9310962920526
 31
0.0
 12
168.4221916625386
 22
113.302609146158
 32
0.0
 13
168.4221916625386
 23
113.302609146158
 33
0.0
  0
SOLID
  5
380
330
357
100
AcDbEntity
  8
EBENE_1
 62
     7
100
AcDbTrace
 10
-168.4221916625386
 20
113.302609146158
 30
0.0
 11
-167.5895659133706
 21
114.9310962920526
 31
0.0
 12
-168.4221916625386
 22
114.421245800659
 32
0.0
 13
-168.4221916625386
 23
114.421245800659
 33
0.0
210
0.0
220
0.0
230
-1.0
  0
SOLID
  5
381
330
357
100
AcDbEntity
  8
EBENE_1
 62
     7
100
AcDbTrace
 10
168.4221916625386
 20
113.302609146158
 30
0.0
 11
168.4221916625386
 21
114.421245800659
 31
0.0
 12
171.2242318149176
 22
112.1543225060987
 32
0.0
 13
171.2242318149176
 23
112.1543225060987
 33
0.0
  0
SOLID
  5
382
330
357
100
AcDbEntity
  8
EBENE_1
 62
     7
100
AcDbTrace
 10
171.2242318149176
 20
112.1543225060987
 30
0.0
 11
168.4221916625386
 21
114.421245800659
 31
0.0
 12
171.2242318149176
 22
113.3253659482411
 32
0.0
 13
171.2242318149176
 23
113.3253659482411
 33
0.0
  0
SOLID
  5
383
330
357
100
AcDbEntity
  8
EBENE_1
 62
     7
100
AcDbTrace
 10
171.2242318149176
 20
112.1543225060987
 30
0.0
 11
171.2242318149176
 21
113.3253659482411
 31
0.0
 12
171.9859303150425
 22
111.9918523950879
 32
0.0
 13
171.9859303150425
 23
111.9918523950879
 33
0.0
  0
SOLID
  5
384
330
357
100
AcDbEntity
  8
EBENE_1
 62
     7
100
AcDbTrace
 10
-171.9859303150425
 20
111.9918523950879
 30
0.0
 11
-171.2242318149176
 21
113.3253659482411
 31
0.0
 12
-171.9859303150425
 22
113.02746513508
 32
0.0
 13
-171.9859303150425
 23
113.02746513508
 33
0.0
210
0.0
220
0.0
230
-1.0
  0
SOLID
  5
385
330
357
100
AcDbEntity
  8
EBENE_1
 62
     7
100
AcDbTrace
 10
171.9859303150425
 20
111.9918523950879
 30
0.0
 11
171.9859303150425
 21
113.02746513508
 31
0.0
 12
175.1906846350218
 22
111.3082790520341
 32
0.0
 13
175.1906846350218
 23
111.3082790520341
 33
0.0
  0
SOLID
  5
386
330
357
100
AcDbEntity
  8
EBENE_1
 62
     7
100
AcDbTrace
 10
175.1906846350218
 20
111.3082790520341
 30
0.0
 11
171.9859303150425
 21
113.02746513508
 31
0.0
 12
175.1906846350218
 22
112.393537540591
 32
0.0
 13
175.1906846350218
 23
112.393537540591
 33
0.0
  0
SOLID
  5
387
330
357
100
AcDbEntity
  8
EBENE_1
 62
     7
100
AcDbTrace
 10
175.1906846350218
 20
111.3082790520341
 30
0.0
 11
175.1906846350218
 21
112.393537540591
 31
0.0
 12
175.8579996305147
 22
111.221234166669
 32
0.0
 13
175.8579996305147
 23
111.221234166669
 33
0.0
  0
SOLID
  5
388
330
357
100
AcDbEntity
  8
EBENE_1
 62
     7
100
AcDbTrace
 10
-175.8579996305147
 20
111.221234166669
 30
0.0
 11
-175.1906846350218
 21
112.393537540591
 31
0.0
 12
-175.8579996305147
 22
112.2615369728027
 32
0.0
 13
-175.8579996305147
 23
112.2615369728027
 33
0.0
210
0.0
220
0.0
230
-1.0
  0
SOLID
  5
389
330
357
100
AcDbEntity
  8
EBENE_1
 62
     7
100
AcDbTrace
 10
175.8579996305147
 20
111.221234166669
 30
0.0
 11
175.8579996305147
 21
112.2615369728027
 31
0.0
 12
182.4833488855858
 22
110.3570204590403
 32
0.0
 13
182.4833488855858
 23
110.3570204590403
 33
0.0
  0
SOLID
  5
38A
330
357
100
AcDbEntity
  8
EBENE_1
 62
     7
100
AcDbTrace
 10
182.4833488855858
 20
110.3570204590403
 30
0.0
 11
175.8579996305147
 21
112.2615369728027
 31
0.0
 12
182.4833488855858
 22
111.2843787021051
 32
0.0
 13
182.4833488855858
 23
111.2843787021051
 33
0.0
  0
SOLID
  5
38B
330
357
100
AcDbEntity
  8
EBENE_1
 62
     7
100
AcDbTrace
 10
182.4833488855858
 20
110.3570204590403
 30
0.0
 11
182.4833488855858
 21
111.2843787021051
 31
0.0
 12
187.19916784057
 22
109.7418867918645
 32
0.0
 13
187.19916784057
 23
109.7418867918645
 33
0.0
  0
SOLID
  5
38C
330
357
100
AcDbEntity
  8
EBENE_1
 62
     7
100
AcDbTrace
 10
187.19916784057
 20
109.7418867918645
 30
0.0
 11
182.4833488855858
 21
111.2843787021051
 31
0.0
 12
187.19916784057
 22
110.4115045483384
 32
0.0
 13
187.19916784057
 23
110.4115045483384
 33
0.0
  0
SOLID
  5
38D
330
357
100
AcDbEntity
  8
EBENE_1
 62
     7
100
AcDbTrace
 10
187.19916784057
 20
109.7418867918645
 30
0.0
 11
187.19916784057
 21
110.4115045483384
 31
0.0
 12
188.3461262549968
 22
109.5922769908311
 32
0.0
 13
188.3461262549968
 23
109.5922769908311
 33
0.0
  0
SOLID
  5
38E
330
357
100
AcDbEntity
  8
EBENE_1
 62
     7
100
AcDbTrace
 10
188.3461262549968
 20
109.5922769908311
 30
0.0
 11
187.19916784057
 21
110.4115045483384
 31
0.0
 12
188.3461262549968
 22
110.1153613564894
 32
0.0
 13
188.3461262549968
 23
110.1153613564894
 33
0.0
  0
SOLID
  5
38F
330
357
100
AcDbEntity
  8
EBENE_1
 62
     7
100
AcDbTrace
 10
188.3461262549968
 20
109.5922769908311
 30
0.0
 11
188.3461262549968
 21
110.1153613564894
 31
0.0
 12
188.6798268164368
 22
106.6130014788806
 32
0.0
 13
188.6798268164368
 23
106.6130014788806
 33
0.0
  0
SOLID
  5
390
330
357
100
AcDbEntity
  8
EBENE_1
 62
     7
100
AcDbTrace
 10
-188.6798268164368
 20
106.6130014788806
 30
0.0
 11
-188.3461262549968
 21
110.1153613564894
 31
0.0
 12
-188.6798268164368
 22
110.0292002994331
 32
0.0
 13
-188.6798268164368
 23
110.0292002994331
 33
0.0
210
0.0
220
0.0
230
-1.0
  0
SOLID
  5
391
330
357
100
AcDbEntity
  8
EBENE_1
 62
     7
100
AcDbTrace
 10
188.6798268164368
 20
106.6130014788806
 30
0.0
 11
188.6798268164368
 21
110.0292002994331
 31
0.0
 12
188.727498325214
 22
104.0628987370051
 32
0.0
 13
188.727498325214
 23
104.0628987370051
 33
0.0
  0
SOLID
  5
392
330
357
100
AcDbEntity
  8
EBENE_1
 62
     7
100
AcDbTrace
 10
-188.727498325214
 20
104.0628987370051
 30
0.0
 11
-188.6798268164368
 21
110.0292002994331
 31
0.0
 12
-188.727498325214
 22
110.0168915769965
 32
0.0
 13
-188.727498325214
 23
110.0168915769965
 33
0.0
210
0.0
220
0.0
230
-1.0
  0
SOLID
  5
393
330
357
100
AcDbEntity
  8
EBENE_1
 62
     7
100
AcDbTrace
 10
-188.727498325214
 20
104.0628987370051
 30
0.0
 11
-188.727498325214
 21
110.0168915769965
 31
0.0
 12
-188.8678186792167
 22
104.1688539979704
 32
0.0
 13
-188.8678186792167
 23
104.1688539979704
 33
0.0
210
0.0
220
0.0
230
-1.0
  0
SOLID
  5
394
330
357
100
AcDbEntity
  8
EBENE_1
 62
     7
100
AcDbTrace
 10
-188.8678186792167
 20
104.1688539979704
 30
0.0
 11
-188.727498325214
 21
110.0168915769965
 31
0.0
 12
-188.8678186792167
 22
109.9806610415271
 32
0.0
 13
-188.8678186792167
 23
109.9806610415271
 33
0.0
210
0.0
220
0.0
230
-1.0
  0
SOLID
  5
395
330
357
100
AcDbEntity
  8
EBENE_1
 62
     7
100
AcDbTrace
 10
-188.8678186792167
 20
104.1688539979704
 30
0.0
 11
-188.8678186792167
 21
109.9806610415271
 31
0.0
 12
-189.0421479123427
 22
104.3004892088492
 32
0.0
 13
-189.0421479123427
 23
104.3004892088492
 33
0.0
210
0.0
220
0.0
230
-1.0
  0
SOLID
  5
396
330
357
100
AcDbEntity
  8
EBENE_1
 62
     7
100
AcDbTrace
 10
-189.0421479123427
 20
104.3004892088492
 30
0.0
 11
-188.8678186792167
 21
109.9806610415271
 31
0.0
 12
-189.0421479123427
 22
109.8973745795845
 32
0.0
 13
-189.0421479123427
 23
109.8973745795845
 33
0.0
210
0.0
220
0.0
230
-1.0
  0
SOLID
  5
397
330
357
100
AcDbEntity
  8
EBENE_1
 62
     7
100
AcDbTrace
 10
-189.0421479123427
 20
104.3004892088492
 30
0.0
 11
-189.0421479123427
 21
109.8973745795845
 31
0.0
 12
-189.2786005606583
 22
104.9268640891654
 32
0.0
 13
-189.2786005606583
 23
104.9268640891654
 33
0.0
210
0.0
220
0.0
230
-1.0
  0
SOLID
  5
398
330
357
100
AcDbEntity
  8
EBENE_1
 62
     7
100
AcDbTrace
 10
-189.2786005606583
 20
104.9268640891654
 30
0.0
 11
-189.0421479123427
 21
109.8973745795845
 31
0.0
 12
-189.2786005606583
 22
109.7844084169848
 32
0.0
 13
-189.2786005606583
 23
109.7844084169848
 33
0.0
210
0.0
220
0.0
230
-1.0
  0
SOLID
  5
399
330
357
100
AcDbEntity
  8
EBENE_1
 62
     7
100
AcDbTrace
 10
-189.2786005606583
 20
104.9268640891654
 30
0.0
 11
-189.2786005606583
 21
109.7844084169848
 31
0.0
 12
-189.5615990058865
 22
106.8275878639181
 32
0.0
 13
-189.5615990058865
 23
106.8275878639181
 33
0.0
210
0.0
220
0.0
230
-1.0
  0
SOLID
  5
39A
330
357
100
AcDbEntity
  8
EBENE_1
 62
     7
100
AcDbTrace
 10
-189.5615990058865
 20
106.8275878639181
 30
0.0
 11
-189.2786005606583
 21
109.7844084169848
 31
0.0
 12
-189.5615990058865
 22
109.6492048208026
 32
0.0
 13
-189.5615990058865
 23
109.6492048208026
 33
0.0
210
0.0
220
0.0
230
-1.0
  0
SOLID
  5
39B
330
357
100
AcDbEntity
  8
EBENE_1
 62
     7
100
AcDbTrace
 10
-189.5615990058865
 20
106.8275878639181
 30
0.0
 11
-189.5615990058865
 21
109.6492048208026
 31
0.0
 12
-189.6807562459826
 22
109.5922769908311
 32
0.0
 13
-189.6807562459826
 23
109.5922769908311
 33
0.0
210
0.0
220
0.0
230
-1.0
  0
ENDBLK
  5
39D
330
357
100
AcDbEntity
  8
0
100
AcDbBlockEnd
  0
ENDSEC
  0
SECTION
  2
ENTITIES
  0
INSERT
  5
3D
330
1F
100
AcDbEntity
  8
EBENE_1
100
AcDbBlockReference
  2
BLOCK_2
 10
0.0
 20
0.0
 30
0.0
  0
INSERT
  5
46
330
1F
100
AcDbEntity
  8
EBENE_1
100
AcDbBlockReference
  2
BLOCK_3
 10
0.0
 20
0.0
 30
0.0
  0
INSERT
  5
4F
330
1F
100
AcDbEntity
  8
EBENE_1
100
AcDbBlockReference
  2
BLOCK_4
 10
0.0
 20
0.0
 30
0.0
  0
INSERT
  5
54
330
1F
100
AcDbEntity
  8
EBENE_1
100
AcDbBlockReference
  2
BLOCK_5
 10
0.0
 20
0.0
 30
0.0
  0
INSERT
  5
59
330
1F
100
AcDbEntity
  8
EBENE_1
100
AcDbBlockReference
  2
BLOCK_6
 10
0.0
 20
0.0
 30
0.0
  0
INSERT
  5
5E
330
1F
100
AcDbEntity
  8
EBENE_1
100
AcDbBlockReference
  2
BLOCK_7
 10
0.0
 20
0.0
 30
0.0
  0
INSERT
  5
67
330
1F
100
AcDbEntity
  8
EBENE_1
100
AcDbBlockReference
  2
BLOCK_8
 10
0.0
 20
0.0
 30
0.0
  0
INSERT
  5
6F
330
1F
100
AcDbEntity
  8
EBENE_1
100
AcDbBlockReference
  2
BLOCK_9
 10
0.0
 20
0.0
 30
0.0
  0
INSERT
  5
77
330
1F
100
AcDbEntity
  8
EBENE_1
100
AcDbBlockReference
  2
BLOCK_10
 10
0.0
 20
0.0
 30
0.0
  0
INSERT
  5
7F
330
1F
100
AcDbEntity
  8
EBENE_1
100
AcDbBlockReference
  2
BLOCK_11
 10
0.0
 20
0.0
 30
0.0
  0
INSERT
  5
87
330
1F
100
AcDbEntity
  8
EBENE_1
100
AcDbBlockReference
  2
BLOCK_12
 10
0.0
 20
0.0
 30
0.0
  0
INSERT
  5
8F
330
1F
100
AcDbEntity
  8
EBENE_1
100
AcDbBlockReference
  2
BLOCK_13
 10
0.0
 20
0.0
 30
0.0
  0
INSERT
  5
94
330
1F
100
AcDbEntity
  8
EBENE_1
100
AcDbBlockReference
  2
BLOCK_14
 10
0.0
 20
0.0
 30
0.0
  0
INSERT
  5
99
330
1F
100
AcDbEntity
  8
EBENE_1
100
AcDbBlockReference
  2
BLOCK_15
 10
0.0
 20
0.0
 30
0.0
  0
INSERT
  5
9E
330
1F
100
AcDbEntity
  8
EBENE_1
100
AcDbBlockReference
  2
BLOCK_16
 10
0.0
 20
0.0
 30
0.0
  0
INSERT
  5
A3
330
1F
100
AcDbEntity
  8
EBENE_1
100
AcDbBlockReference
  2
BLOCK_17
 10
0.0
 20
0.0
 30
0.0
  0
INSERT
  5
A8
330
1F
100
AcDbEntity
  8
EBENE_1
100
AcDbBlockReference
  2
BLOCK_18
 10
0.0
 20
0.0
 30
0.0
  0
INSERT
  5
AD
330
1F
100
AcDbEntity
  8
EBENE_1
100
AcDbBlockReference
  2
BLOCK_19
 10
0.0
 20
0.0
 30
0.0
  0
INSERT
  5
B2
330
1F
100
AcDbEntity
  8
EBENE_1
100
AcDbBlockReference
  2
BLOCK_20
 10
0.0
 20
0.0
 30
0.0
  0
INSERT
  5
BA
330
1F
100
AcDbEntity
  8
EBENE_1
100
AcDbBlockReference
  2
BLOCK_21
 10
0.0
 20
0.0
 30
0.0
  0
INSERT
  5
C2
330
1F
100
AcDbEntity
  8
EBENE_1
100
AcDbBlockReference
  2
BLOCK_22
 10
0.0
 20
0.0
 30
0.0
  0
INSERT
  5
C8
330
1F
100
AcDbEntity
  8
EBENE_1
100
AcDbBlockReference
  2
BLOCK_23
 10
0.0
 20
0.0
 30
0.0
  0
INSERT
  5
D0
330
1F
100
AcDbEntity
  8
EBENE_1
100
AcDbBlockReference
  2
BLOCK_24
 10
0.0
 20
0.0
 30
0.0
  0
INSERT
  5
D8
330
1F
100
AcDbEntity
  8
EBENE_1
100
AcDbBlockReference
  2
BLOCK_25
 10
0.0
 20
0.0
 30
0.0
  0
INSERT
  5
DD
330
1F
100
AcDbEntity
  8
EBENE_1
100
AcDbBlockReference
  2
BLOCK_26
 10
0.0
 20
0.0
 30
0.0
  0
INSERT
  5
E2
330
1F
100
AcDbEntity
  8
EBENE_1
100
AcDbBlockReference
  2
BLOCK_27
 10
0.0
 20
0.0
 30
0.0
  0
INSERT
  5
E7
330
1F
100
AcDbEntity
  8
EBENE_1
100
AcDbBlockReference
  2
BLOCK_28
 10
0.0
 20
0.0
 30
0.0
  0
INSERT
  5
EC
330
1F
100
AcDbEntity
  8
EBENE_1
100
AcDbBlockReference
  2
BLOCK_29
 10
0.0
 20
0.0
 30
0.0
  0
INSERT
  5
F1
330
1F
100
AcDbEntity
  8
EBENE_1
100
AcDbBlockReference
  2
BLOCK_30
 10
0.0
 20
0.0
 30
0.0
  0
INSERT
  5
F6
330
1F
100
AcDbEntity
  8
EBENE_1
100
AcDbBlockReference
  2
BLOCK_31
 10
0.0
 20
0.0
 30
0.0
  0
INSERT
  5
FE
330
1F
100
AcDbEntity
  8
EBENE_1
100
AcDbBlockReference
  2
BLOCK_32
 10
0.0
 20
0.0
 30
0.0
  0
INSERT
  5
108
330
1F
100
AcDbEntity
  8
EBENE_1
100
AcDbBlockReference
  2
BLOCK_33
 10
0.0
 20
0.0
 30
0.0
  0
INSERT
  5
112
330
1F
100
AcDbEntity
  8
EBENE_1
100
AcDbBlockReference
  2
BLOCK_34
 10
0.0
 20
0.0
 30
0.0
  0
INSERT
  5
11A
330
1F
100
AcDbEntity
  8
EBENE_1
100
AcDbBlockReference
  2
BLOCK_35
 10
0.0
 20
0.0
 30
0.0
  0
INSERT
  5
122
330
1F
100
AcDbEntity
  8
EBENE_1
100
AcDbBlockReference
  2
BLOCK_36
 10
0.0
 20
0.0
 30
0.0
  0
INSERT
  5
127
330
1F
100
AcDbEntity
  8
EBENE_1
100
AcDbBlockReference
  2
BLOCK_37
 10
0.0
 20
0.0
 30
0.0
  0
INSERT
  5
12F
330
1F
100
AcDbEntity
  8
EBENE_1
100
AcDbBlockReference
  2
BLOCK_38
 10
0.0
 20
0.0
 30
0.0
  0
INSERT
  5
139
330
1F
100
AcDbEntity
  8
EBENE_1
100
AcDbBlockReference
  2
BLOCK_39
 10
0.0
 20
0.0
 30
0.0
  0
INSERT
  5
143
330
1F
100
AcDbEntity
  8
EBENE_1
100
AcDbBlockReference
  2
BLOCK_40
 10
0.0
 20
0.0
 30
0.0
  0
INSERT
  5
14B
330
1F
100
AcDbEntity
  8
EBENE_1
100
AcDbBlockReference
  2
BLOCK_41
 10
0.0
 20
0.0
 30
0.0
  0
INSERT
  5
153
330
1F
100
AcDbEntity
  8
EBENE_1
100
AcDbBlockReference
  2
BLOCK_42
 10
0.0
 20
0.0
 30
0.0
  0
INSERT
  5
158
330
1F
100
AcDbEntity
  8
EBENE_1
100
AcDbBlockReference
  2
BLOCK_43
 10
0.0
 20
0.0
 30
0.0
  0
INSERT
  5
160
330
1F
100
AcDbEntity
  8
EBENE_1
100
AcDbBlockReference
  2
BLOCK_44
 10
0.0
 20
0.0
 30
0.0
  0
INSERT
  5
16A
330
1F
100
AcDbEntity
  8
EBENE_1
100
AcDbBlockReference
  2
BLOCK_45
 10
0.0
 20
0.0
 30
0.0
  0
INSERT
  5
174
330
1F
100
AcDbEntity
  8
EBENE_1
100
AcDbBlockReference
  2
BLOCK_46
 10
0.0
 20
0.0
 30
0.0
  0
INSERT
  5
17C
330
1F
100
AcDbEntity
  8
EBENE_1
100
AcDbBlockReference
  2
BLOCK_47
 10
0.0
 20
0.0
 30
0.0
  0
INSERT
  5
184
330
1F
100
AcDbEntity
  8
EBENE_1
100
AcDbBlockReference
  2
BLOCK_48
 10
0.0
 20
0.0
 30
0.0
  0
INSERT
  5
189
330
1F
100
AcDbEntity
  8
EBENE_1
100
AcDbBlockReference
  2
BLOCK_49
 10
0.0
 20
0.0
 30
0.0
  0
INSERT
  5
191
330
1F
100
AcDbEntity
  8
EBENE_1
100
AcDbBlockReference
  2
BLOCK_50
 10
0.0
 20
0.0
 30
0.0
  0
INSERT
  5
19B
330
1F
100
AcDbEntity
  8
EBENE_1
100
AcDbBlockReference
  2
BLOCK_51
 10
0.0
 20
0.0
 30
0.0
  0
INSERT
  5
1A5
330
1F
100
AcDbEntity
  8
EBENE_1
100
AcDbBlockReference
  2
BLOCK_52
 10
0.0
 20
0.0
 30
0.0
  0
INSERT
  5
1AD
330
1F
100
AcDbEntity
  8
EBENE_1
100
AcDbBlockReference
  2
BLOCK_53
 10
0.0
 20
0.0
 30
0.0
  0
INSERT
  5
1B5
330
1F
100
AcDbEntity
  8
EBENE_1
100
AcDbBlockReference
  2
BLOCK_54
 10
0.0
 20
0.0
 30
0.0
  0
INSERT
  5
1BA
330
1F
100
AcDbEntity
  8
EBENE_1
100
AcDbBlockReference
  2
BLOCK_55
 10
0.0
 20
0.0
 30
0.0
  0
INSERT
  5
1C2
330
1F
100
AcDbEntity
  8
EBENE_1
100
AcDbBlockReference
  2
BLOCK_56
 10
0.0
 20
0.0
 30
0.0
  0
INSERT
  5
1CC
330
1F
100
AcDbEntity
  8
EBENE_1
100
AcDbBlockReference
  2
BLOCK_57
 10
0.0
 20
0.0
 30
0.0
  0
INSERT
  5
1D6
330
1F
100
AcDbEntity
  8
EBENE_1
100
AcDbBlockReference
  2
BLOCK_58
 10
0.0
 20
0.0
 30
0.0
  0
INSERT
  5
1DE
330
1F
100
AcDbEntity
  8
EBENE_1
100
AcDbBlockReference
  2
BLOCK_59
 10
0.0
 20
0.0
 30
0.0
  0
INSERT
  5
1E6
330
1F
100
AcDbEntity
  8
EBENE_1
100
AcDbBlockReference
  2
BLOCK_60
 10
0.0
 20
0.0
 30
0.0
  0
INSERT
  5
1EB
330
1F
100
AcDbEntity
  8
EBENE_1
100
AcDbBlockReference
  2
BLOCK_61
 10
0.0
 20
0.0
 30
0.0
  0
INSERT
  5
1F3
330
1F
100
AcDbEntity
  8
EBENE_1
100
AcDbBlockReference
  2
BLOCK_62
 10
0.0
 20
0.0
 30
0.0
  0
INSERT
  5
1FD
330
1F
100
AcDbEntity
  8
EBENE_1
100
AcDbBlockReference
  2
BLOCK_63
 10
0.0
 20
0.0
 30
0.0
  0
INSERT
  5
207
330
1F
100
AcDbEntity
  8
EBENE_1
100
AcDbBlockReference
  2
BLOCK_64
 10
0.0
 20
0.0
 30
0.0
  0
INSERT
  5
20F
330
1F
100
AcDbEntity
  8
EBENE_1
100
AcDbBlockReference
  2
BLOCK_65
 10
0.0
 20
0.0
 30
0.0
  0
INSERT
  5
217
330
1F
100
AcDbEntity
  8
EBENE_1
100
AcDbBlockReference
  2
BLOCK_66
 10
0.0
 20
0.0
 30
0.0
  0
INSERT
  5
21C
330
1F
100
AcDbEntity
  8
EBENE_1
100
AcDbBlockReference
  2
BLOCK_67
 10
0.0
 20
0.0
 30
0.0
  0
INSERT
  5
224
330
1F
100
AcDbEntity
  8
EBENE_1
100
AcDbBlockReference
  2
BLOCK_68
 10
0.0
 20
0.0
 30
0.0
  0
INSERT
  5
22E
330
1F
100
AcDbEntity
  8
EBENE_1
100
AcDbBlockReference
  2
BLOCK_69
 10
0.0
 20
0.0
 30
0.0
  0
INSERT
  5
238
330
1F
100
AcDbEntity
  8
EBENE_1
100
AcDbBlockReference
  2
BLOCK_70
 10
0.0
 20
0.0
 30
0.0
  0
INSERT
  5
240
330
1F
100
AcDbEntity
  8
EBENE_1
100
AcDbBlockReference
  2
BLOCK_71
 10
0.0
 20
0.0
 30
0.0
  0
INSERT
  5
248
330
1F
100
AcDbEntity
  8
EBENE_1
100
AcDbBlockReference
  2
BLOCK_72
 10
0.0
 20
0.0
 30
0.0
  0
INSERT
  5
24D
330
1F
100
AcDbEntity
  8
EBENE_1
100
AcDbBlockReference
  2
BLOCK_73
 10
0.0
 20
0.0
 30
0.0
  0
INSERT
  5
255
330
1F
100
AcDbEntity
  8
EBENE_1
100
AcDbBlockReference
  2
BLOCK_74
 10
0.0
 20
0.0
 30
0.0
  0
INSERT
  5
25F
330
1F
100
AcDbEntity
  8
EBENE_1
100
AcDbBlockReference
  2
BLOCK_75
 10
0.0
 20
0.0
 30
0.0
  0
INSERT
  5
269
330
1F
100
AcDbEntity
  8
EBENE_1
100
AcDbBlockReference
  2
BLOCK_76
 10
0.0
 20
0.0
 30
0.0
  0
INSERT
  5
271
330
1F
100
AcDbEntity
  8
EBENE_1
100
AcDbBlockReference
  2
BLOCK_77
 10
0.0
 20
0.0
 30
0.0
  0
INSERT
  5
279
330
1F
100
AcDbEntity
  8
EBENE_1
100
AcDbBlockReference
  2
BLOCK_78
 10
0.0
 20
0.0
 30
0.0
  0
INSERT
  5
27E
330
1F
100
AcDbEntity
  8
EBENE_1
100
AcDbBlockReference
  2
BLOCK_79
 10
0.0
 20
0.0
 30
0.0
  0
INSERT
  5
286
330
1F
100
AcDbEntity
  8
EBENE_1
100
AcDbBlockReference
  2
BLOCK_80
 10
0.0
 20
0.0
 30
0.0
  0
INSERT
  5
290
330
1F
100
AcDbEntity
  8
EBENE_1
100
AcDbBlockReference
  2
BLOCK_81
 10
0.0
 20
0.0
 30
0.0
  0
INSERT
  5
29A
330
1F
100
AcDbEntity
  8
EBENE_1
100
AcDbBlockReference
  2
BLOCK_82
 10
0.0
 20
0.0
 30
0.0
  0
INSERT
  5
2A2
330
1F
100
AcDbEntity
  8
EBENE_1
100
AcDbBlockReference
  2
BLOCK_83
 10
0.0
 20
0.0
 30
0.0
  0
INSERT
  5
2AA
330
1F
100
AcDbEntity
  8
EBENE_1
100
AcDbBlockReference
  2
BLOCK_84
 10
0.0
 20
0.0
 30
0.0
  0
INSERT
  5
2B0
330
1F
100
AcDbEntity
  8
EBENE_1
100
AcDbBlockReference
  2
BLOCK_85
 10
0.0
 20
0.0
 30
0.0
  0
INSERT
  5
2B6
330
1F
100
AcDbEntity
  8
EBENE_1
100
AcDbBlockReference
  2
BLOCK_86
 10
0.0
 20
0.0
 30
0.0
  0
INSERT
  5
2BE
330
1F
100
AcDbEntity
  8
EBENE_1
100
AcDbBlockReference
  2
BLOCK_87
 10
0.0
 20
0.0
 30
0.0
  0
INSERT
  5
2C3
330
1F
100
AcDbEntity
  8
EBENE_1
100
AcDbBlockReference
  2
BLOCK_88
 10
0.0
 20
0.0
 30
0.0
  0
INSERT
  5
2CB
330
1F
100
AcDbEntity
  8
EBENE_1
100
AcDbBlockReference
  2
BLOCK_89
 10
0.0
 20
0.0
 30
0.0
  0
INSERT
  5
2D3
330
1F
100
AcDbEntity
  8
EBENE_1
100
AcDbBlockReference
  2
BLOCK_90
 10
0.0
 20
0.0
 30
0.0
  0
INSERT
  5
2DB
330
1F
100
AcDbEntity
  8
EBENE_1
100
AcDbBlockReference
  2
BLOCK_91
 10
0.0
 20
0.0
 30
0.0
  0
INSERT
  5
2E0
330
1F
100
AcDbEntity
  8
EBENE_1
100
AcDbBlockReference
  2
BLOCK_92
 10
0.0
 20
0.0
 30
0.0
  0
INSERT
  5
2E8
330
1F
100
AcDbEntity
  8
EBENE_1
100
AcDbBlockReference
  2
BLOCK_93
 10
0.0
 20
0.0
 30
0.0
  0
INSERT
  5
2ED
330
1F
100
AcDbEntity
  8
EBENE_1
100
AcDbBlockReference
  2
BLOCK_94
 10
0.0
 20
0.0
 30
0.0
  0
ENDSEC
  0
SECTION
  2
OBJECTS
  0
DICTIONARY
  5
C
330
0
100
AcDbDictionary
  3
ACAD_GROUP
350
D
  3
ACAD_LAYOUT
350
1A
  3
ACAD_MLINESTYLE
350
17
  3
ACAD_PLOTSETTINGS
350
19
  3
ACAD_TABLESTYLE
350
2F2
  3
ACAD_VISUALSTYLE
350
2A
1001
ACAD
1000
TREAT_AS_HARD
1070
     0
  0
DICTIONARY
  5
D
102
{ACAD_REACTORS
330
C
102
}
330
C
100
AcDbDictionary
1001
ACAD
1000
TREAT_AS_HARD
1070
     0
  0
DICTIONARY
  5
1A
102
{ACAD_REACTORS
330
C
102
}
330
C
100
AcDbDictionary
1001
ACAD
1000
TREAT_AS_HARD
1070
     0
  0
DICTIONARY
  5
17
102
{ACAD_REACTORS
330
C
102
}
330
C
100
AcDbDictionary
  3
STANDARD
350
18
1001
ACAD
1000
TREAT_AS_HARD
1070
     0
  0
DICTIONARY
  5
19
102
{ACAD_REACTORS
330
C
102
}
330
C
100
AcDbDictionary
1001
ACAD
1000
TREAT_AS_HARD
1070
     0
  0
DICTIONARY
  5
2F2
102
{ACAD_REACTORS
330
C
102
}
330
C
100
AcDbDictionary
1001
ACAD
1000
TREAT_AS_HARD
1070
     0
  0
DICTIONARY
  5
2A
102
{ACAD_REACTORS
330
C
102
}
330
C
100
AcDbDictionary
  3
2DWIREFRAME
350
2F
  3
3D_HIDDEN
350
31
  3
3DWIREFRAME
350
30
  3
BASIC
350
32
  3
BRIGHTEN
350
36
  3
COLORCHANGE
350
3A
  3
CONCEPTUAL
350
34
  3
DIM
350
35
  3
FACEPATTERN
350
39
  3
FLAT
350
2B
  3
FLATWITHEDGES
350
2C
  3
GOURAUD
350
2D
  3
GOURAUDWITHEDGES
350
2E
  3
LINEPATTERN
350
38
  3
REALISTIC
350
33
  3
THICKEN
350
37
1001
ACAD
1000
TREAT_AS_HARD
1070
     0
  0
MLINESTYLE
  5
18
102
{ACAD_REACTORS
330
17
102
}
330
17
100
AcDbMlineStyle
  2
Standard
 70
     0
  3

 62
   256
 51
90.0
 52
90.0
 71
     2
 49
0.5
 62
   256
  6
BYLAYER
 49
-0.5
 62
   256
  6
BYLAYER
  0
VISUALSTYLE
  5
2F
102
{ACAD_REACTORS
330
2A
102
}
330
2A
100
AcDbVisualStyle
  2
2dWireframe
 70
     4
 71
     0
 72
     2
 73
     0
 90
        0
 40
-0.6
 41
-30.0
 62
     5
 63
     7
 74
     1
 91
        4
 64
     7
 65
   257
 75
     1
175
     1
 42
1.0
 92
        0
 66
   257
 43
1.0
 76
     1
 77
     6
 78
     2
 67
     7
 79
     5
170
     0
171
     0
290
     0
174
     0
 93
        1
 44
0.0
173
     0
291
     0
 45
0.0
1001
ACAD
1000
AcDbSavedByObjectVersion
1070
     0
  0
VISUALSTYLE
  5
31
102
{ACAD_REACTORS
330
2A
102
}
330
2A
100
AcDbVisualStyle
  2
3D Hidden
 70
     6
 71
     1
 72
     2
 73
     2
 90
        0
 40
-0.6
 41
-30.0
 62
     5
 63
     7
 74
     2
 91
        2
 64
     7
 65
   257
 75
     2
175
     1
 42
40.0
 92
        0
 66
   257
 43
1.0
 76
     1
 77
     6
 78
     2
 67
     7
 79
     3
170
     0
171
     0
290
     0
174
     0
 93
        1
 44
0.0
173
     0
291
     0
 45
0.0
1001
ACAD
1000
AcDbSavedByObjectVersion
1070
     0
  0
VISUALSTYLE
  5
30
102
{ACAD_REACTORS
330
2A
102
}
330
2A
100
AcDbVisualStyle
  2
3dWireframe
 70
     5
 71
     0
 72
     2
 73
     0
 90
        0
 40
-0.6
 41
-30.0
 62
     5
 63
     7
 74
     1
 91
        4
 64
     7
 65
   257
 75
     1
175
     1
 42
1.0
 92
        0
 66
   257
 43
1.0
 76
     1
 77
     6
 78
     2
 67
     7
 79
     5
170
     0
171
     0
290
     0
174
     0
 93
        1
 44
0.0
173
     0
291
     0
 45
0.0
1001
ACAD
1000
AcDbSavedByObjectVersion
1070
     0
  0
VISUALSTYLE
  5
32
102
{ACAD_REACTORS
330
2A
102
}
330
2A
100
AcDbVisualStyle
  2
Basic
 70
     7
 71
     1
 72
     0
 73
     1
 90
        0
 40
-0.6
 41
-30.0
 62
     5
 63
     7
 74
     0
 91
        4
 64
     7
 65
   257
 75
     1
175
     1
 42
1.0
 92
        8
 66
     7
 43
1.0
 76
     1
 77
     6
 78
     2
 67
     7
 79
     5
170
     0
171
     0
290
     0
174
     0
 93
        1
 44
0.0
173
     0
291
     1
 45
0.0
1001
ACAD
1000
AcDbSavedByObjectVersion
1070
     0
  0
VISUALSTYLE
  5
36
102
{ACAD_REACTORS
330
2A
102
}
330
2A
100
AcDbVisualStyle
  2
Brighten
 70
    12
 71
     2
 72
     2
 73
     0
 90
        0
 40
-0.6
 41
-30.0
 62
     5
 63
     7
 74
     1
 91
        4
 64
     7
 65
   257
 75
     1
175
     1
 42
1.0
 92
        8
 66
     7
 43
1.0
 76
     1
 77
     6
 78
     2
 67
     7
 79
     5
170
     0
171
     0
290
     0
174
     0
 93
        1
 44
50.0
173
     0
291
     1
 45
0.0
1001
ACAD
1000
AcDbSavedByObjectVersion
1070
     0
  0
VISUALSTYLE
  5
3A
102
{ACAD_REACTORS
330
2A
102
}
330
2A
100
AcDbVisualStyle
  2
ColorChange
 70
    16
 71
     2
 72
     2
 73
     3
 90
        0
 40
-0.6
 41
-30.0
 62
     5
 63
     8
 74
     1
 91
        4
 64
     7
 65
   257
 75
     1
175
     1
 42
1.0
 92
        8
 66
     8
 43
1.0
 76
     1
 77
     6
 78
     2
 67
     7
 79
     5
170
     0
171
     0
290
     0
174
     0
 93
        1
 44
0.0
173
     0
291
     1
 45
0.0
1001
ACAD
1000
AcDbSavedByObjectVersion
1070
     0
  0
VISUALSTYLE
  5
34
102
{ACAD_REACTORS
330
2A
102
}
330
2A
100
AcDbVisualStyle
  2
Conceptual
 70
     9
 71
     3
 72
     2
 73
     0
 90
        0
 40
-0.6
 41
-30.0
 62
     5
 63
     7
 74
     2
 91
        2
 64
     7
 65
   257
 75
     1
175
     1
 42
40.0
 92
        8
 66
     7
 43
1.0
 76
     1
 77
     6
 78
     2
 67
     7
 79
     3
170
     0
171
     0
290
     0
174
     0
 93
        1
 44
0.0
173
     0
291
     0
 45
0.0
1001
ACAD
1000
AcDbSavedByObjectVersion
1070
     0
  0
VISUALSTYLE
  5
35
102
{ACAD_REACTORS
330
2A
102
}
330
2A
100
AcDbVisualStyle
  2
Dim
 70
    11
 71
     2
 72
     2
 73
     0
 90
        0
 40
-0.6
 41
-30.0
 62
     5
 63
     7
 74
     1
 91
        4
 64
     7
 65
   257
 75
     1
175
     1
 42
1.0
 92
        8
 66
     7
 43
1.0
 76
     1
 77
     6
 78
     2
 67
     7
 79
     5
170
     0
171
     0
290
     0
174
     0
 93
        1
 44
-50.0
173
     0
291
     1
 45
0.0
1001
ACAD
1000
AcDbSavedByObjectVersion
1070
     0
  0
VISUALSTYLE
  5
39
102
{ACAD_REACTORS
330
2A
102
}
330
2A
100
AcDbVisualStyle
  2
Facepattern
 70
    15
 71
     2
 72
     2
 73
     0
 90
        0
 40
-0.6
 41
-30.0
 62
     5
 63
     7
 74
     1
 91
        4
 64
     7
 65
   257
 75
     1
175
     1
 42
1.0
 92
        8
 66
     7
 43
1.0
 76
     1
 77
     6
 78
     2
 67
     7
 79
     5
170
     0
171
     0
290
     0
174
     0
 93
        1
 44
0.0
173
     0
291
     1
 45
0.0
1001
ACAD
1000
AcDbSavedByObjectVersion
1070
     0
  0
VISUALSTYLE
  5
2B
102
{ACAD_REACTORS
330
2A
102
}
330
2A
100
AcDbVisualStyle
  2
Flat
 70
     0
 71
     2
 72
     1
 73
     1
 90
        2
 40
-0.6
 41
30.0
 62
     5
 63
     7
 74
     0
 91
        4
 64
     7
 65
   257
 75
     1
175
     1
 42
1.0
 92
        8
 66
     7
 43
1.0
 76
     1
 77
     6
 78
     2
 67
     7
 79
     5
170
     0
171
     0
290
     0
174
     0
 93
       13
 44
0.0
173
     0
291
     1
 45
0.0
1001
ACAD
1000
AcDbSavedByObjectVersion
1070
     0
  0
VISUALSTYLE
  5
2C
102
{ACAD_REACTORS
330
2A
102
}
330
2A
100
AcDbVisualStyle
  2
FlatWithEdges
 70
     1
 71
     2
 72
     1
 73
     1
 90
        2
 40
-0.6
 41
30.0
 62
     5
 63
     7
 74
     1
 91
        4
 64
     7
 65
   257
 75
     1
175
     1
 42
1.0
 92
        0
 66
   257
 43
1.0
 76
     1
 77
     6
 78
     2
 67
     7
 79
     5
170
     0
171
     0
290
     0
174
     0
 93
       13
 44
0.0
173
     0
291
     1
 45
0.0
1001
ACAD
1000
AcDbSavedByObjectVersion
1070
     0
  0
VISUALSTYLE
  5
2D
102
{ACAD_REACTORS
330
2A
102
}
330
2A
100
AcDbVisualStyle
  2
Gouraud
 70
     2
 71
     2
 72
     2
 73
     1
 90
        2
 40
-0.6
 41
30.0
 62
     5
 63
     7
 74
     0
 91
        4
 64
     7
 65
   257
 75
     1
175
     1
 42
1.0
 92
        0
 66
     7
 43
1.0
 76
     1
 77
     6
 78
     2
 67
     7
 79
     5
170
     0
171
     0
290
     0
174
     0
 93
       13
 44
0.0
173
     0
291
     1
 45
0.0
1001
ACAD
1000
AcDbSavedByObjectVersion
1070
     0
  0
VISUALSTYLE
  5
2E
102
{ACAD_REACTORS
330
2A
102
}
330
2A
100
AcDbVisualStyle
  2
GouraudWithEdges
 70
     3
 71
     2
 72
     2
 73
     1
 90
        2
 40
-0.6
 41
30.0
 62
     5
 63
     7
 74
     1
 91
        4
 64
     7
 65
   257
 75
     1
175
     1
 42
1.0
 92
        0
 66
   257
 43
1.0
 76
     1
 77
     6
 78
     2
 67
     7
 79
     5
170
     0
171
     0
290
     0
174
     0
 93
       13
 44
0.0
173
     0
291
     1
 45
0.0
1001
ACAD
1000
AcDbSavedByObjectVersion
1070
     0
  0
VISUALSTYLE
  5
38
102
{ACAD_REACTORS
330
2A
102
}
330
2A
100
AcDbVisualStyle
  2
Linepattern
 70
    14
 71
     2
 72
     2
 73
     0
 90
        0
 40
-0.6
 41
-30.0
 62
     5
 63
     7
 74
     1
 91
        4
 64
     7
 65
   257
 75
     7
175
     7
 42
1.0
 92
        8
 66
     7
 43
1.0
 76
     1
 77
     6
 78
     2
 67
     7
 79
     5
170
     0
171
     0
290
     0
174
     0
 93
        1
 44
0.0
173
     0
291
     1
 45
0.0
1001
ACAD
1000
AcDbSavedByObjectVersion
1070
     0
  0
VISUALSTYLE
  5
33
102
{ACAD_REACTORS
330
2A
102
}
330
2A
100
AcDbVisualStyle
  2
Realistic
 70
     8
 71
     2
 72
     2
 73
     0
 90
        0
 40
-0.6
 41
-30.0
 62
     5
 63
     7
 74
     1
 91
        0
 64
     7
 65
   257
 75
     1
175
     1
 42
1.0
 92
        8
 66
     8
 43
1.0
 76
     1
 77
     6
 78
     2
 67
     7
 79
     5
170
     0
171
     0
290
     0
174
     0
 93
       13
 44
0.0
173
     0
291
     0
 45
0.0
1001
ACAD
1000
AcDbSavedByObjectVersion
1070
     0
  0
VISUALSTYLE
  5
37
102
{ACAD_REACTORS
330
2A
102
}
330
2A
100
AcDbVisualStyle
  2
Thicken
 70
    13
 71
     2
 72
     2
 73
     0
 90
        0
 40
-0.6
 41
-30.0
 62
     5
 63
     7
 74
     1
 91
        4
 64
     7
 65
   257
 75
     1
175
     1
 42
1.0
 92
       12
 66
     7
 43
1.0
 76
     1
 77
     6
 78
     2
 67
     7
 79
     5
170
     0
171
     0
290
     0
174
     0
 93
        1
 44
0.0
173
     0
291
     1
 45
0.0
1001
ACAD
1000
AcDbSavedByObjectVersion
1070
     0
  0
ENDSEC
  0
EOF
